Guitar Tabs, Chords and Lyrics
Update 25:10. 13:00. Site is back up running again. Songbooks are recovered. Woring on getting search back up..


Bukan Pahlawan  Superman Is Dead

Basic Chord: E C G D
[E]|-?-|
|-?-|
|-?-|
|-8-|
|-8-|
|-7-|
[C]|-?-|
|-?-|
|-5-|
|-5-|
|-3-|
|-?-|
[G]|-?-|
|-?-|
|-?-|
|-5-|
|-5-|
|-3-|
[D]|-?-|
|-?-|
|-7-|
|-7-|
|-5-|
|-?-|
Intro:
[E] [C] [G] [D]  
 
 E|--------------|--------------|--------------|--------------|
 B|--------------|--------------|--------------|--------------|
 G|--------------|-5------------|--------------|-7------------|
 D|-8------------|-5------------|-5------------|-7------------| Play Twice
 A|-8------------|-3------------|-5------------|-5------------|
 e|-7------------|--------------|-3------------|--------------|

First Solo
[E] [C] [G] [D] [E] [C] [G]  
 
 E|---------------------------------------------------------------------------------|
 B|------------8-8~--10-8-(8)/12~--12-10-12-10~~~------------------8~---------------|
 G|-9--9--7-9-------------------------------------------9--9--7-9------7h-9---------|
 D|--------------------------------------------------------------------------9~~~~--|
 A|---------------------------------------------------------------------------------|
 e|---------------------------------------------------------------------------------|

[E] [C] [G] [D] [E] [C] [G]  
 
 E|---------------------------------------------------------------------------------|
 B|------------8-8~--10-8-(8)/12~--12-10-12-10~~~--------8---------8~--8h10-8~~~~---|
 G|-9--9--7-9----------------------------------------7/9----9-7-9-------------------|
 D|---------------------------------------------------------------------------------|
 A|---------------------------------------------------------------------------------|
 e|---------------------------------------------------------------------------------|

Socond Solo
[E] [C] [G] [D] [E] [C] [G]  
 
 E|---------------------------------------------------------------------------------|
 B|------------8-8~--10-8-(8)/12~--12-10-12-10~~~------------------8~---------------|
 G|-9--9--7-9-------------------------------------------9--9--7-9------7h-9---------|
 D|--------------------------------------------------------------------------9~~~~--|
 A|---------------------------------------------------------------------------------|
 e|---------------------------------------------------------------------------------|

[E] [C] [G] [D] [E] [C] [G]  
 
 E|-------------------------------------------------------15~-----------15~-15h17-15~~~~----|
 B|------------8-8~--10-8-(8)/12~--12-10-12-10~~~--15/17------15--17-15---------------------|
 G|-9--9--7-9-------------------------------------------------------------------------------|
 D|-----------------------------------------------------------------------------------------|
 A|-----------------------------------------------------------------------------------------|
 e|-----------------------------------------------------------------------------------------|

Fill Effect
 
 E|----------------------------||----------------------------|
 B|----------------------------||----------------------------|
 G|----7??(7)/9~~--12~~--9~~~---||----7??(7)/9~~--12~~---------|
 D|-9--------------------------||-9-------------------9~~~---|
 A|----------------------------||----------------------------|
 e|----------------------------||----------------------------|

Pertarungan abadi setan .........
h = hammer
/ = Slide
()= Ghost Sound
This is my first time I have tabing, I??m sorry if there is uncorrect tab
Use your feeling to work. Enjoy !
Anda bisa menaikkan dan menurunkan nada sesuka hati !!!
Sory banget kalo ada yang salah
Spesial thanks to:
Gamberrr cah smuven yk

Important: The song above is NOT stored on the Chordie server. The original song is hosted at www.azchords.com. Chordie works as a search engine and provides on-the-fly formatting. Chordie does not index songs against artists'/composers' will. To remove this song please click here.

Text color:
Chord color:
Chord grids: 
Font size:    
Page size: 

C D E G
Rate #1 of 4 versions

Jango Player

Login - add to songbook

SHARE PAGE  




You need to log in to post comments