Guitar Tabs, Chords and Lyrics
Update 25:10. 13:00. Site is back up running again. Songbooks are recovered. Woring on getting search back up..


Luka Indonesia  Superman Is Dead

Song : Luka Indonesia
Artist : Superman Is Dead
Album : Angels And The Outsiders
@Intro
 
 e|---------------------------------------------|
 B|---------------------------------------------|
 G|---------------------------------------------|
 D|---------------------------------------------|
 A|------------------------2--------2-4--2-4-5--|
 E|--2--0-0-2-4-5--2-2-4-5----4-4-5-------------|

@Solo
 
 e|----------------------------------------------------------------------------------|
 B|----------------------------------------------------------------------------------|
 G|----------------------------------------------------------------------------------|
 D|------7-6-4---------------------------7-6-4---------------------------------------|
 A|--5---------7-4---4-4-4-------7---5---------7---4-----4-----4---4-----4-----7--5--|
 E|------------------------7--5----------------------7-5---7-5---7---7-5---7-5-------|
 e|--------------------------------------------------------|
 B|--------------------------------------------------------|
 G|--------------------------------------------------------|
 D|------7-6-4---------------------------7-6-4-------------|
 A|--5---------7-4---4-4-4-------7---5---------7---4-----4-|
 E|------------------------7--5----------------------7-5---|
 ----------------------------------------------------------|
 ----------------------------------------------------------|
 ----------------------------------------------------------|
 ----------------------------------------------------------|
 ----4---4-----4-----4---4-----4-----4---4-----4-----7--5--|
 7-5---7---7-5---7-5---7---7-5---7-5---7---7-5---7-5-------|

(intro)
[F#5]  
[F#5] [A5] [B5] [C#5]  
[F#5] [A5] [B5] [C#5]  
[D5]Satu nusa.. satu bangsa,,
[F#5]Satu nusa,, saling mangsa,,
[D5]Satu nusa.. satu bangsa,,
[F#5]Cukup sudah,, saling mangsa,,
[D5]Satu nusa.. satu bangsa,,
[F#5]Satu nusa,, saling mangsa,,
[D5]Satu nusa.. satu bangsa,,
[F#5]Cukup sudah,, saling mangsa,,
[D5]Satu nusa.. satu bangsa,,
[C#5]Jangan pernah menyerah..
[D5]Sat[C#5]u nusa.. satu bangsa,,
[D5]Jan[C#5]gan pernah menyerah..
[D5]Cuk[C#5]up sudah,, [D5]sal[E5]ing memangsa,,
[F#5]Yang kudengar, yang kulihat,,
darah hitam mengalir [A5]deras..
[D5]S??mua tahu.. hancur wajahmu..
tak kubiarkan,, terus[A5] menghajarmu..
[F#5]Tak ??kan ada yang sempurna
lebih dari yang kubay[A5]angkan..
[D5]Semampunya kita bayangkan..
tanah ini b??nar merdeka..
[A5]Mungkin[C#5]kah..
[F#5]Satu nusa dan [D5]satu s??lamanya..
[A5]Mungkin[C#5]kah..
[F#5]tawa luka ini [D5]milik semua[C#5]nya..
Dengarkanlah nafas mer[D5]deka untuk [E5]s??lamanya..
[D5]Satu nusa.. satu bangsa,,
[F#5]Satu nusa,, saling mangsa,,
[D5]Satu nusa.. satu bangsa,,
[F#5]Cukup sudah,, saling mangsa,,
[D5]Satu nusa.. satu bangsa,,
[C#5]Jangan pernah menyerah..
[D5]Sat[C#5]u nusa.. satu bangsa,,
[D5]Jan[C#5]gan pernah menyerah..
[D5]Cuk[C#5]up sudah,, [D5]sal[E5]ing memangsa,,
[D5]Tanah ini, tangan ini..
kucengkram erat bumi pertiwi..
[F#5]Raih langit terbang lepas
Mengejar mimpi merah [A5]putihku..
[D5]Dimanapun kau berada
hatiku ku akan tetap disini..
[F#5]Tiada dendam hari esok,,
Tiada luka hari [A5]ini..
[D5]Nafas ini tak pernah lepas
untuk menjaga tanah airku..
[A5]Mungkin[C#5]kah..
[F#5]Satu nusa dan [D5]satu s??lamanya..
[A5]Mungkin[C#5]kah..
[F#5]tawa luka ini [D5]milik semua[C#5]nya..
Dengarkanlah nafas mer[D5]deka untuk [E5]s??lamanya..
(solo)
[D5] [F#5] [D5] [F#5]  
[D5] [F#5] [D5] [F#5]  
[D5]  
[A5]Satu nusa satu bangsa
satu bangsa ??tuk slamanya..
[D5]bertahanlah bertahan jangan pernah menyerah..
[A5]dan mimpi merah putihku
terpendam saat ku mati
[D5]bertahanlah bertahan jangan pernah menyerah..!!!
[A5]Mungkin[C#5]kah..
[F#5]Satu nusa dan [D5]satu s??lamanya..
[A5]Mungkin[C#5]kah..
[F#5]tawa luka ini [D5]milik semua[C#5]..
[A5]Mungkin[C#5]kah..
[F#5]Satu nusa dan [D5]satu s??lamanya..
[A5]Mungkin[C#5]kah..
[F#5]tawa luka ini [D5]milik semua[C#5]nya..
Dengarkanlah nafas mer[D5]deka untuk [E5]s??lamanya..
[D5]Satu nusa.. satu bangsa,,
[F#5]Satu nusa,, saling mangsa,,
[D5]Satu nusa.. satu bangsa,,
[F#5]Cukup sudah,, saling mangsa,,
[D5]Satu nusa.. satu bangsa,,
[F#5]Satu nusa,, saling mangsa,,
[D5]Satu nusa.. satu bangsa,,
[F#5]Cukup sudah,, saling mangsa,,

Important: The song above is NOT stored on the Chordie server. The original song is hosted at www.azchords.com. Chordie works as a search engine and provides on-the-fly formatting. Chordie does not index songs against artists'/composers' will. To remove this song please click here.

Text color:
Chord color:
Chord grids: 
Font size:    
Page size: 

A5 B5 C#5 D5 E5 F#5
Rate #4 of 4 versions

Jango Player

Login - add to songbook

SHARE PAGE  



You need to log in to post comments