Guitar Tabs, Chords and Lyrics
Update 25:10. 13:00. Site is back up running again. Songbooks are recovered. Woring on getting search back up..


Easy Does It  Supertramp

*Repeat this part 1x Em7 A Em7 A
 
 e:|----------------------------||-----------------0----0-----------------------0----0---||
 B:|-------------------3--------||-----------------3----2-----------------------3----2---||
 G:|---2---2---2---4---2---2----||-----------------0----2--------2--------------0----2---||
 D:|---2---4---0---0---0---0----||---2/4--2--0--2--2----2---2/4-----4--2--0??2---2----2---||
 A:|----------------------------||-----------------2----0-----------------------2----0---||
 E:|----------------------------||-----------------0----------------------------0--------||

PROG 2:
[G] [D] [G] [D]  
 
 e:|---------------3---3---3---2-----2---2---3---2---0-----3----3---3---2--|
 B:|---------------0---0---0---3-----3---3---3---3---3-----0----0---0---3--|
 G:|-----------2---0---0---0---2-----2---2---2---2---2-----0----0---0---2--|
 D:|---2---4-------0---0---0---0-----0---0---0---0---0-----0----0---0---0--|
 A:|---------------2---2---2-------------------------------2----2---2------|
 E:|---------------3---3---3-------------------------------3----3---3------|

Dsus4 - x00213
Verse:
(Prog 1)
And if my thoughts had wings, I'd be the bird that sings,
[D]I'd fly where [Em7]love isn't [A]shy, and everyone is[Em7] willing to [A]try.
(Prog 1)
And if we had the time, and time's so hard to find,
I can't b[Em7]elieve what yo[A]u say, start sending those[Em7] shadows [A]away,
(Prog 2)
And if you [G]know who you [D]are, you are your [G]own super[D]star,
[D]And only [D7]you can shape the movie that you [D7sus4]make,
So when the [Em7]lights disappe[A]ar,
And only the[Em7] silence is he[A]re,
Watch yourself[Em7], easy does it, easy does it, easy while you w[A]ait.
INTERLUDE - PLAY PROGRESSION #1 2X
And if you [G]know who you [D]are, you are your [G]own super[D]star,
[D]And only [D7]you can shape the music that you [D7sus4]make.
So when the [Em7]crowds disap[A]pear,
And only the [Em7]silence is [A]here
Watch yourself, [Em7]easy does it, easy does it, easy while you [A]wait.
** This is the lead-in to 'Sister Moonshine'
END

Important: The song above is NOT stored on the Chordie server. The original song is hosted at www.azchords.com. Chordie works as a search engine and provides on-the-fly formatting. Chordie does not index songs against artists'/composers' will. To remove this song please click here.

Text color:
Chord color:
Chord grids: 
Font size:    
Page size: 

A D D7 D7sus4 Em7 G
Rate #1 of 6 versions

Jango Player

Login - add to songbook

SHARE PAGE  



You need to log in to post comments