Guitar Tabs, Chords and Lyrics
Server problems seems to be fixed. Chordie has been experiencing problems with songs disappearing. These issues now seems to be fixed, but still verifying the fix. If you find anything strange, please email admin@chordie.com.


Always  Switchfoot

Switchfoot
Hello Hurricane -- 2009
Tuning - Standard (E A D G B E)
*Chords are listed at end of song
Verse 1
[C]This is the start
[F]This is your heart
[Am]This is the [G]day you were [F]born
[C]This is the sun
[F]These are your lungs
[Am]This is the [G]day you were [F]born
Chorus
And I am [Am]al--[F]ways
[C]Al--[F]ways
[Am]Al--[G]ways [C]yours 

Verse 2
[C]These are the scars
[F]Deep in your heart
[Am]This is the [G]place you were [F]born
[Am]This is the [Em]hole
Where [F]most of your [C]soul
Comes [G/B]ripping [Am]out
[G] [F]  
Slide Guitar (1:11-1:23)
 
 e|--------------------------|
 B|--------------------------|
 G|--5/12--14\9--5/12--14\5--|
 D|--------------------------|
 A|--------------------------|
 E|--------------------------|

Chorus
Interlude 2
Am F C (2x)
[Em] [Am]  
[C] [Em]  
Slide Guitar
 
 e|-----------------------------------------------|
 B|--1/8--10\5--1/8--10\5--1/8--13\10--1/8--10\5--|
 G|-----------------------------------------------|
 D|-----------------------------------------------|
 A|-----------------------------------------------|
 E|-----------------------------------------------|

Bridge
Hallel[F]ujah!
I'm caving[C] in
Hallel[F]ujah!
I'm in love [C]again [G/B]
Hallel[Am]ujah!
[F]I'm a wretched [C]man[G/B]
Hallel[Am]ujah!
Every [F]breath is a second [C]chance
Chorus - 4x
Ending Slide Guitar
 
 e|-----------------------------------------------|
 B|--10\5--1/8--10\5--1/8--5/6\5\1--1/8--5/6\5\1--|
 G|-----------------------------------------------|
 D|-----------------------------------------------|
 A|-----------------------------------------------|
 E|-----------------------------------------------|

*Chords Used
C F Am G OR Gsus4 Em G/B
 
 e|------------3------3----0---3--|
 B|--1--1--1---3------1----0---1--|
 G|--0--2--2---0------0----0---0--|
 D|--2--3--2---0------0----2---0--|
 A|--3--3--0---2------2----2---2--|
 E|------------3------3----0------|


Important: The song above is NOT stored on the Chordie server. The original song is hosted at www.azchords.com. Chordie works as a search engine and provides on-the-fly formatting. Chordie does not index songs against artists'/composers' will. To remove this song please click here.

Text color:
Chord color:
Chord grids: 
Font size:    
Page size: 

Am C Em F G G/B
Rate #1 of 9 versions

Jango Player

Login - add to songbook

SHARE PAGE  




You need to log in to post comments