Guitar Tabs, Chords and Lyrics
Major upgrade!! After one year development the new version of Chordie is now online! Please give feedback.


Needles  System of a Down

(Intro)
 
 e|2p1-----2p1-----2p1-----2p1-----|
 B|----1-------1-------1-------1---|
 G|--------------------------------|
 D|--------------------------------| x 4
 A|--------------------------------|
 E|--------------------------------|
 e|--------------------------------|
 B|--------------------------------|
 G|--------------------------------|
 D|3-3-4---3---4---3---4---3---4---| x 4
 A|3-3-4---3---4---3---4---3---4---|
 E|--------------------------------|
 e|--------------------------------|
 B|--------------------------------|
 G|--------------------------------|
 D|4p3-----4p3-----4p3-----4p3-----| x 4
 A|----3-------3-------3-------3---|
 E|--------------------------------|
 e|--------------------------------|
 B|--------------------------------|
 G|--------------------------------|
 D|3-3-4---3---4---3---4---3---4---| x 4
 A|3-3-4---3---4---3---4---3---4---|
 E|--------------------------------|
 e|--------------------------------|
 B|--------------------------------|
 G|--------------------------------|
 D|4p3-----4p3-----4p3-----4p3-----| x 4
 A|----3-------3-------3-------3---|
 E|--------------------------------|

F5 F#5 F5 F#5 |F5 F#5 F5 F#5
I can-not dis-guise
F5 F#5 F5 F#5 |F5 F#5 F5 F#5
All the stomach pains And the walking of the canes
F5 F#5 F5 F#5 |F5 F#5 F5 F#5
When you, do come out
F5 F#5 F5 F#5 |F5 F#5 F5 F#5
And you whisper up to me In your life of trage-dy
 
 e|--------------------------------|
 B|--------------------------------|
 G|--------------------------------|
 D|4p3-----4p3-----4p3-----4p3-----| x 4
 A|----3-------3-------3-------3---|
 E|--------------------------------|

F5 F#5 F5 F#5 |F5 F#5 F5 F#5
But I can-not grow
F5 F#5 F5 F#5 |F5 F#5 F5 F#5
Till you eat the last of me Oh when will I be free
F5 F#5 F5 F#5 |F5 F#5 F5 F#5
And you, a para-site
F5 F#5 F5 F#5 |F5 F#5 F5 F#5
Just find an-other host Just an-other fool to roast
Cause [F5]you[Eb5] [Db5] [Eb5]
My [F#5]tapeworm tells me what to do
[F5]You[Eb5] [Db5] [Eb5]
My [F#5]tapeworm tells me where to go
[F5]Pull the [Eb5]tapeworm [F#5]out of your [F5]ass, Hey x 4
 
 e|--------------------------------|
 B|--------------------------------|
 G|--------------------------------|
 D|3-3-4---3---4---3---4---3---4---| x 2
 A|3-3-4---3---4---3---4---3---4---|
 E|--------------------------------|
 e|--------------------------------|
 B|--------------------------------|
 G|--------------------------------|
 D|4p3-----4p3-----4p3-----4p3-----| x 2
 A|----3-------3-------3-------3---|
 E|--------------------------------|

F5 F#5 F5 F#5 |F5 F#5 F5 F#5
I cannot de-ny
F5 F#5 F5 F#5 |F5 F#5 F5 F#5
All the evil traits And the filling of the crates
F5 F#5 F5 F#5 |F5 F#5 F5 F#5
When you, do come out
F5 F#5 F5 F#5 |F5 F#5 F5 F#5
And you slither up to me In your pimpin' majes-ty
 
 e|--------------------------------|
 B|--------------------------------|
 G|--------------------------------|
 D|4p3-----4p3-----4p3-----4p3-----| x 4
 A|----3-------3-------3-------3---|
 E|--------------------------------|

F5 F#5 F5 F#5 |F5 F#5 F5 F#5
But I can-not grow
F5 F#5 F5 F#5 |F5 F#5 F5 F#5
Till you eat the last of me Oh when will I be free
F5 F#5 F5 F#5 |F5 F#5 F5 F#5
And you, a para-site
F5 F#5 F5 F#5 |F5 F#5 F5 F#5
Just find an-other host Just an-other stool to post
Cause [F5]you[Eb5] [Db5] [Eb5]
My [F#5]tapeworm tells me what to do
[F5]You[Eb5] [Db5] [Eb5]
My [F#5]tapeworm tells me where to go
[F5]Pull the [Eb5]tapeworm [F#5]out of your [F5]ass, Hey x 3
[F5]Pull the [Eb5]tapeworm [F#5]out of me?[F5]
Mute 8 bars ( |F5 |Db5 |C5 |E5 | x 2 )
(Solo)
|(F5) |(Db5) |(C5) |(E5) |
 
 e|----------------|----------------|----------------|----------------|
 B|----2-1-----2---|----------------|----1-0-----1---|----------------|
 G|----------------|----------------|----------------|----------------|
 D|3---------3---2-|----3-2-----3---|2---------2---3-|----3-2-----3---| x 2
 A|----------------|4---------4---3-|----------------|3---------3---3-|
 E|----------------|----------------|----------------|----------------|

|(F5) |(Db5) |(C5) |(E5) |
 
 e|----------------|----------------|----------------|----------------|
 B|----2-1-----2---|----------------|----1-0-----1---|----------------|
 G|----------------|----------------|----------------|----------------|
 D|3---------3---2-|----3-2-----3---|2---------2---3-|----3-2-----3---| x 4
 A|----------------|4---------4---3-|----------------|3---------3---3-|
 E|----------------|----------------|----------------|----------------|

I'm just sitting in my room
With a needle in my hand
Just waiting for the tomb
Of some old dying man
Sitting in my room
With a needle in my hand
Just waiting for the tomb
Of some old dying man?
 
 e|--------------------------------|
 B|--------------------------------|
 G|--------------------------------|
 D|3-3-4---3---4---3---4---3---4---| x 4
 A|3-3-4---3---4---3---4---3---4---|
 E|--------------------------------|
 e|--------------------------------|
 B|--------------------------------|
 G|--------------------------------|
 D|4p3-----4p3-----4p3-----4p3-----| x 4
 A|----3-------3-------3-------3---|
 E|--------------------------------|

Cause [F5]you[Eb5] [Db5] [Eb5]
My [F#5]tapeworm tells me what to do
[F5]You[Eb5] [Db5] [Eb5]
My [F#5]tapeworm tells me where to go
[F5]Pull the [Eb5]tapeworm [F#5]out of your [F5]ass, Hey x 4
|F5 F#5 G#5 F#5 |F5 Eb5 F#5 F5 |
Hey x 4

Important: The song above is NOT stored on the Chordie server. The original song is hosted at www.azchords.com. Chordie works as a search engine and provides on-the-fly formatting. Chordie does not index songs against artists'/composers' will. To remove this song please click here.

Text color:
Chord color:
Chord grids: 
Font size:    
Page size: 

Db5 Eb5 F#5 F5
Rate #1 of 2 versions

Jango Player

Login - add to songbook

SHARE PAGE  




You need to log in to post comments