Guitar Tabs, Chords and Lyrics
Major upgrade!! After one year development the new version of Chordie is now online! Please give feedback.


Malchik Gay  t.A.T.u.

Band Name: T.A.T.u
Song Name: Malchik Gay
Tab for you people: Chesterlp1990 (Alberto Hernandez)
It’s played in Standard E and With An Acoustic Guitar
It took me like 2 hours per day on one week, I think I’m good enough for this
And hey its my first tab and I’m sure its 100% good and 100% clear!Enjoy!
Alright then if you want a tab version its right here,
If you want a chords version for acoustic it’s at the bottom
(after this one right here)
Intro (Palm Muted):
 
 e /---------------------------------------------
 B/----------------------------------------------
 G/----------------------------------------------
 D/---------------------------------------------- (Repeat 3 Times)
 A/---------------------0-0---0----------3-3-----
 E/--1-1---1-0-0---0--------------3-3---3-------3

PM..............................................
Verse #1 (Part 1): (Part 2) (Part 3) (Part 4)
 
 e /--------------1--------/---------------1----3---/--1----/---------
 B/--1-----1------1--------/---1----1------1----3---/--3----/--1------
 G/--2-----0------2--------/---2----0------2----0---/--2----/--0------
 D/--2-----2------3----2---/---2----2------3----0---/-------/--2------
 A/--------3------3----2---/--------3------3----2---/-------/--3------
 E/---------------1----0---/---------------1----3---/-------/---------

Chorus:
 
 e /-1---3-----------/--1---3-------------
 B/--1---3---1---1---/--3---3---1---1-----
 G/--2---0---0---2---/--2---0---0---2-----
 D/--3---0---2---2---/------0---2---2-----
 A/--3---2---3-------/------2---3---------
 E/--1---3-----------/------3-------------

Intro (Palm Muted):
 
 e /-------------------------------------------
 B/--------------------------------------------
 G/--------------------------------------------
 D/--------------------------------------------
 A/---------------------0-0---0----------------
 E/--1-1---1-0-0---0------------3-3---3--------

PM............................................
Verse #2 (Part 1): (Part 2) (Part 3)
 
 e /--------------1--------/-------------1----3---/--1----/
 B/--1-----1------1--------/--1----1-----1----3---/--3----/
 G/--2-----0------2--------/--2----0-----2----0---/--2----/
 D/--2-----2------3----2---/--2----2-----3----0---/-------/
 A/--------3------3----2---/-------3-----3----2---/-------/
 E/---------------1----0---/-------------1----3---/-------/

Pre-Chorus (Second)(You have to use a Pedal here but I don’t know witch one, sorry):
 
 e /--------
 B/---------
 G/--1~-----
 D/--2~----- (Let it ring)
 A/--2~-----
 E/---------

Chorus:
 
 e /-1---3-----------/---1---3-------------
 B/--1---3---1---1---/---3---3---1---1-----
 G/--2---0---0---2---/---2---0---0---2-----
 D/--3---0---2---2---/-------0---2---2-----
 A/--3---2---3-------/-------2---3---------
 E/--1---3-----------/-------3-------------

Bridge (You know with the weird Keyboard)
 
 e /-1---3-----------/---1---3---------------
 B/--1---3---1---1---/---1---3----1---1------
 G/--2---0---2---0---/---2---0----0---2------
 D/--3---0---2---2---/---3---0----2---2------
 A/--3---2-------3---/---3---2----3----------
 E/--1---3-----------/---1---3---------------

Chorus:
 
 e /-1---3-----------/--1---3-------------
 B/--1---3---1---1---/--3---3---1---1-----
 G/--2---0---0---2---/--2---0---0---2-----
 D/--3---0---2---2---/------0---2---2-----
 A/--3---2---3-------/------2---3---------
 E/--1---3-----------/------3-------------

Intro (Palm Muted):
 
 e /----------------------------------------
 B/-----------------------------------------
 G/-----------------------------------------
 D/-----------------------------------------
 A/---------------------0-0---0-------------
 E/--1-1---1-0-0---0-------------3-3--------

PM.........................................
Chorus (In Russian) :
 
 e /-1---3-----------/--1---3-------------
 B/--1---3---1---1---/--3---3---1---1-----
 G/--2---0---0---2---/--2---0---0---2-----
 D/--3---0---2---2---/------0---2---2-----
 A/--3---2---3-------/------2---3---------
 E/--1---3-----------/------3-------------

Chorus (This Time In English):
 
 e /-1---3-----------/--1---3-------------
 B/--1---3---1---1---/--3---3---1---1-----
 G/--2---0---0---2---/--2---0---0---2-----
 D/--3---0---2---2---/------0---2---2-----
 A/--3---2---3-------/------2---3---------
 E/--1---3-----------/------3-------------

Intro (Palm Muted):
 
 e /---------------------------------------------
 B/----------------------------------------------
 G/----------------------------------------------
 D/---------------------------------------------- (Repeat 2 Times)
 A/---------------------0-0---0------------------
 E/--1-1---1-0-0---0--------------3-3---3--------

PM..............................................
Chords Version (acoustic) :
Chords:
Am : 002210 Em: 022000
C : 032010 Dm: 000231
F : 133211 E : 022100
G : 320033
Intro (Palm Muted):
 
 e /------------------------------------------------
 B/-------------------------------------------------
 G/-------------------------------------------------
 D/------------------------------------------------- (Repeat 3 Times)
 A/---------------------0-0---0--------------3-3----
 E/--1-1---1-0-0---0--------------3-3---3----------3

PM.................................................
Malchik gay, Malchik gay, malchik gay, Malchik gay,
Malchik gay, malchik gay, Malchik gay, Malchik gay
Handsome, Tender, Soft, Why do you look right through me, thinking [Am] [C] [F]
"No"[Em], I can't deny
M[Am]y feelings, Growing s[C]trong, I try to keep believ[F]ing dreaming o[G]n,
And eve[G]ry time I se[Dm]e you, I crave more I wanna pull [Dm]you
C (Hit it only ones and don't let it ring!)
closer, closer, closer, closer, but you leave me feeling frozen
M[F]alchik gay, Mal[F]chik gay, I [G]can be all you need, [C]Won't you please stay with me,
[Am]Malchik gay Malchik gay
[Dm]Apologies, might-have-been's, [G]Malchik gay, Malchik gay, [C]can't erase what I feel
[Am]Malchik gay, gay,
Intro (Palm Muted):
 
 e /-----------------------------------------
 B/------------------------------------------
 G/------------------------------------------
 D/------------------------------------------
 A/---------------------0-0---0--------------
 E/--1-1---1-0-0---0-------------3-3---3-----PM..........................................

Malchik gay, Malchik gay
[Am]Ckoking, Back emotion,[C] I try to keep on [F]hoping for a way; a reason for
[Am]Us Both to come in c[C]lose, I long for you to h[F]old me like your [G]boyfriend does and
though my
[Dm]Dream is slowly fading I wanna be the
(Nothing is played here)
Object, object , object, object of your passion but it's hopeless
E (Let it Ring!)
M[F]alchik gay, Mal[F]chik gay, I [G]can be all you need, [C]Won't you please stay with me,
[Am]Malchik gay Malchik gay
[Dm]Apologies, might-have-been's, [G]Malchik gay, Malchik gay, [C]can't erase what I feel
[Am]Malchik gay, gay,
Malchik gay
(No lyrics only keyboard)
[F] [G] [Am] [C] [F] [G] [C] [Am]  
M[F]alchik gay, Mal[F]chik gay, I [G]can be all you need, [C]Won't you please stay with me,
[Am]Malchik gay Malchik gay
[Dm]Apologies, might-have-been's, [G]Malchik gay, Malchik gay, [C]can't erase what I feel
[Am]Malchik gay, gay,
Intro (Palm Muted):
 
 e /--------------------------------------------
 B/---------------------------------------------
 G/---------------------------------------------
 D/---------------------------------------------
 A/---------------------0-0---0-----------------
 E/--1-1---1-0-0---0--------------3-3-----------

PM.............................................
(Mal'chik Gey)x2
[F]Mal'chik Gey, [F]Mal'chik Gey Bud' [G]so mnoi ponaglei. [C]Ot styda ne krasnei,
[Am]Mal'chik Gey, Mal'chik Gey
[Dm]Polozhi na druzei,[G] Mal'chik Gey, Mal'chik Gey.[C] Ot menya , **** [Am]Mal'chik Gey Gey'
M[F]alchik gay, Mal[F]chik gay, I [G]can be all you need, [C]Won't you please stay with me,
[Am]Malchik gay Malchik gay
[Dm]Apologies, might-have-been's, [G]Malchik gay, Malchik gay, [C]can't erase what I feel
[Am]Malchik gay, gay,
Intro (Palm Muted):
 
 e /------------------------------------------------
 B/-------------------------------------------------
 G/-------------------------------------------------
 D/------------------------------------------------- (Repeat Twice)
 A/---------------------0-0---0---------------3-3---
 E/--1-1---1-0-0---0--------------3-3----3---------3

PM.................................................
If you’d like to reach me for anything concerning the tab,
(No! I'm not gay, i simply just like t.a.t.u's music and guitar)
Julia and Lena Rule!
Peace!

Important: The song above is NOT stored on the Chordie server. The original song is hosted at www.azchords.com. Chordie works as a search engine and provides on-the-fly formatting. Chordie does not index songs against artists'/composers' will. To remove this song please click here.

Text color:
Chord color:
Chord grids: 
Font size:    
Page size: 

Am C Dm Em F G
Rate #1 of 8 versions

Jango Player

Login - add to songbook

SHARE PAGE  



You need to log in to post comments