Guitar Tabs, Chords and Lyrics
Major upgrade!! After one year development the new version of Chordie is now online! Please give feedback.


Dark Come Soon  Tegan and Sara

Tuning: Standard
NOTE:
When T&S play this song they actually use a Capo on the 5th fret. I don‚??t!
It‚??s basically the same. I you do choose to use the Capo, know that Am=Em, F5=C, and C=G.
And also, when they play they use three guitars, and I just use one, so it‚??s quite
that it may not be complete.
If you come up with any other kind of riff just use it! :)
Ok, my friends, ENJOY!!!!!
CHORDS:
[Am] [F5] [C]  
 
 e ----0----0----0-----|
 B ----1----1----1-----|
 G ----2----2----0-----|
 D ----2----3----2-----|
 A ----0----3----3-----|
 E ----X----X----X-----|

INTRO/VERSE 1:
(The riff in F5 can be played in several ways. I just wrote down one that I liked, but
can strum any string as long as it follows the same chord and sounds good.)
[Am]??Dark...‚?? [F5] ‚??You can‚??t come soon enough...‚??
 
 e --------------------------------------0-------------0---------|
 B ----------------------------------------1-------------1-------|
 G ------------------------------------------2-------------2-----|
 D ----2-----2-----2-----2---2-------3-------------3---------3---|
 A -0-----0-----0-----0-----0------3---3---------3---3-----------|
 E --------------------------------------------------------------|

[Am]Dark
You [F5]can't come soon enough for me
[Am]Saved
[F5]  
BRIDGE 1:
(Mix the riff with a light strumming)
[F5]‚??Everything I love...‚??
 
 e -------0--------0---------0---------0-------|
 B ---------1--------1----------1--------1-----|
 G -----------2-------------------2------------|
 D ----3------------------3--------------------|
 A --3-----------3------3------------3---------|
 E --------------------------------------------|

[C]‚??Get back...‚??
 
 e -------0--------0--------0--------0-----------|
 B ---------1--------1--------1--------1---------|
 G -----------0-----------------0----------------|
 D ----2------------------2-----------------2----|
 A --3----------3-------3----------3------3------|
 E ----------------------------------------------|

[F5]Everything I love
[C]Get back for me now
[F5]Everyone I love
[C]I need you now
VERSE 2:
(Light strumming)
[Am]‚??Don‚??t...‚?? [F5] ‚??Forget a million miles...‚??
 
 e -----------0---------------0--------------0-------------0---------|
 B -------------1---------------1--------------1-------------1-------|
 G ------2--------2-------2-------2---------------2-------------2----|
 D ----2---2--------2-------2-------2-----3-------------3---------3--|
 A -0-------------------0---------------3---3---------3---3----------|
 E ------------------------------------------------------------------|

[Am]Don't
[F5]Forget a million miles for me
[Am]Safe
And an[F5]other day passed by me
BRIDGE 2:
[F5]‚??Everything I love...‚??
 
 e -------0--------0---------0---------0-------|
 B ---------1--------1----------1--------1-----|
 G -----------2-------------------2------------|
 D ----3------------------3--------------------|
 A --3-----------3------3------------3---------|
 E --------------------------------------------|

[C]‚??Get back...‚??
 
 e -------0--------0--------0--------0-----------|
 B ---------1--------1--------1--------1---------|
 G -----------0-----------------0----------------|
 D ----2------------------2-----------------2----|
 A --3----------3-------3----------3------3------|
 E ----------------------------------------------|

[F5]Everything I love
[C]Get back for me now
[F5]Everyone I love
[C]I need you now
CHORUS 1:
(Strumming in a fast tempo, not following a riff anymore)
[C]‚??So conned...‚?? ‚?[F5]?...to me too...‚??
 
 e --0--0--0--0-- e --0--0--0--0--|
 B --1--1--1--1-- B --1--1--1--1--|
 G --0--0--0--0-- (x4) G --2--2--2--2--| (x4)
 D --2--2--2--2-- D --3--3--3--3--|
 A --3--3--3--3-- A --3--3--3--3--|
 E --x--x--x‚??-x-- E --x--x--x--x--|

[C]So I conned, I lied
I lied to [F5]me too (so what?)
[C]So I conned, I lied
I lied to [F5]me too (so what?)
(Light strumming. When you first switch the first chord strum harder the first time)
[Am]‚??Hold...‚?? [F5] ‚??Know will...‚??
X X
 
 e ---0--0--0--0------0--0--0--0---|
 B ---1--1--1--1------1--1--1--1---|
 G ---2--2--2--2------2--2--2--2---|
 D ---2--2--2--2------3--3--3--3---|
 A ---0--0--0--0------3--3--3--3---|
 E ---x--x--x--x------x--x--x--x---|

[Am]Hold
Out for the ones you k[F5]now will love you
[Am]Hide
Out from the ones you [F5]know will love you
[F5]You, you too
(In this part the chords are the same as before, but some notes are switched, so that
match the riff heard in the background.
Strum quickly)
[C] [F5]  
 
 e ---0-0-0---0-0-0---0---0---0-0-0-0---0-0-0---|
 B ---0-0-0---1-1-1---3---1---1-1-1-1---1-1-1---|
 G ---0-0-0---0-0-0---0---0---2-2-2-2---0-0-0---| (x4)
 D ---2-2-2---2-2-2---2---3---3-3-3-3---3-3-3---|
 A ---3-3-3---3-3-3---3---3---3-3-3-3---3-3-3---|
 E ---------------------------------------------|

VERSE 3:
(No riff, only light stumming the chord)
[Am]Night
[F5]To the edge and barely there
[Am]Slow
To m[F5]ake my move, I'm almost there
BRIDGE 3:
[F5]‚??Everything I say...‚??
 
 e -------0--------0---------0---------0---------|
 B ---------1--------1----------1--------1-------|
 G -----------2-------------------2--------------|
 D ----3------------------3----------------------|
 A --3-----------3------3------------3-----------|
 E ----------------------------------------------|

[C]‚??I say...‚??
 
 e -------0--------0--------0--------0-----------|
 B ---------1--------1--------1--------1---------|
 G -----------0-----------------0----------------|
 D ----2------------------2-----------------2----|
 A --3----------3-------3----------3------3------|
 E ----------------------------------------------|

[F5]Everything I say
[C]I say to me first
[F5]Everything I do
[C]I do to me first
CHORUS 2:
[C]‚??So what...‚?? ‚?[F5]?...to me too...‚??
 
 e --0--0--0--0-- e --0--0--0--0--|
 B --1--1--1--1-- B --1--1--1--1--|
 G --0--0--0--0-- (x4) G --2--2--2--2--| (x4)
 D --2--2--2--2-- D --3--3--3--3--|
 A --3--3--3--3-- A --3--3--3--3--|
 E --x--x--x‚??-x-- E --x--x--x--x--|

[C]So what, I lied
I lied to [F5]me too
[C]So what, I lied
I lied to [F5]me too
[Am]‚??Hold...‚?? [F5] ‚??Know will...‚??
X X
 
 e ---0--0--0--0------0--0--0--0---|
 B ---1--1--1--1------1--1--1--1---|
 G ---2--2--2--2------2--2--2--2---|
 D ---2--2--2--2------3--3--3--3---|
 A ---0--0--0--0------3--3--3--3---|
 E ---x--x--x--x------x--x--x--x---|

[Am]Hold
Out for the ones you [F5]know will love you
[Am]Hide
Out from the ones you [F5]know will love you
[F5]You, you too
(It‚??s the same part as before, that follows the riff. Strum quickly)
[C] [F5]  
 
 e ---0-0-0---0-0-0---0---0---0-0-0-0---0-0-0---|
 B ---0-0-0---1-1-1---3---1---1-1-1-1---1-1-1---|
 G ---0-0-0---0-0-0---0---0---2-2-2-2---0-0-0---| (x4)
 D ---2-2-2---2-2-2---2---3---3-3-3-3---3-3-3---|
 A ---3-3-3---3-3-3---3---3---3-3-3-3---3-3-3---|
 E ---------------------------------------------|

OUTRO:
(Strum only once each chord)
[Am]Dark
You [F5]can't come soon enough for me
THE END.

Important: The song above is NOT stored on the Chordie server. The original song is hosted at www.azchords.com. Chordie works as a search engine and provides on-the-fly formatting. Chordie does not index songs against artists'/composers' will. To remove this song please click here.

Text color:
Chord color:
Chord grids: 
Font size:    
Page size: 

Am C F5
Rate #1 of 5 versions

Login - add to songbook

SHARE PAGE  




You need to log in to post comments