Guitar Tabs, Chords and Lyrics
Update 25:10. 13:00. Site is back up running again. Songbooks are recovered. Woring on getting search back up..


Tokyo  Telekinesis

 

Intro riff (palm-muted, dist.):
 
 E-----------------|-----------------|-----------------|-----------------|
 B-----------------|-----------------|-----------------|-----------------|
 G-----------------|-----------------|-----------------|-----------------| x2
 D-----------------|-------8--8--8---|-----------------|-------8--8--8---|
 A-11-11-11-11-11--|-9--9--9--9--9---|-11-11-11-11-11--|-9--9--9--9--9---|
 E-7--7--7--7--7---|-7--7--7--7--7---|-7--7--7--7--7---|-7--7--7--7--7---|

Verse (power chords):
[F#]I, I, I went to Tokyo
[F#]Only in my dreams, cuz they're all I know
[B]Neon-colored lights flashing in my brain
[B]Cruising through the city on a bullet-train
[F#]Dove into the depths of the deepest sea
[F#]Where no one can swim, that's a funny thing
[B]Only in my dreams, only in my dreams
[B]Only in my dreams, only in my dreams
Prechorus:
[Abm]I'll try and keep up but I[B] know I'm failing
[Abm]I'll try and keep up but I[B] know I'm failing
Solo/bridge:
(F#, B)x2
Chorus 1 (held out chords):
[F#]Only in my dreams, only in my dreams
[F#]Only in my dreams, only in my dreams
[B]Tell me what you see, tell me what you see
[B]Tell me what you see, tell me what you see
[F#]Only in my dreams, only in my dreams
[F#]Only in my dreams, only in my dreams
[B]Tell me what you see, tell me what you see
[B]Tell me what you see, tell me what you see
Prechorus:
[Abm]I'll try and keep up but I[B] know I'm failing
Abm B (x2)
I'll try and keep up but I know I'm failing
Chorus 2:
[F#]I, I, I went to Tokyo
[F#]I, I, I went to Tokyo
B (x2)
I, I, I went to Tokyo
[B]I, I, I went to Tokyo
Outro riff:
 
 E-----------|-----------------|
 B-----------|-----------------|
 G-----------|-----------------| x4
 D-6-6-6-6---|-4--4\8--8-------|
 A-----------|-----------------|
 E-4??4??4??4---|-2--2\6--6-------|

End on G#m
-Cheers, and Buy ??Telekinesis!?? (John Baer)

Important: The song above is NOT stored on the Chordie server. The original song is hosted at www.azchords.com. Chordie works as a search engine and provides on-the-fly formatting. Chordie does not index songs against artists'/composers' will. To remove this song please click here.

Text color:
Chord color:
Chord grids: 
Font size:    
Page size: 

Abm B F#
Rate #1 of 2 versions

Jango Player

Login - add to songbook

SHARE PAGE  




You need to log in to post comments