Guitar Tabs, Chords and Lyrics
Server problems seems to be fixed. Chordie has been experiencing problems with songs disappearing. These issues now seems to be fixed, but still verifying the fix. If you find anything strange, please email admin@chordie.com.


Aatos  Tenhi

 
 ----------------------------------------------------------------------------

Tenhi - Aatos
 
 ----------------------------------------------------------------------------

Tuning: standard EADGBe
Verse:
[Dm]  
 
 e-|-------0-----------0-----------0-----------0----------------------------|
 B-|-----6-----------6---6-------6---6-------6------------------------------|
 G-|---7-------7---7-------7---7-------7---7-------7------------------------|
 D-|-7-----------7-----------7-----------7----------------------------------|
 A-|------------------------------------------------------------------------|
 E-|------------------------------------------------------------------------|

[Gm/Bb] [Gm]  
 
 e-|------------------------------------------------------------------------|
 B-|-------3-----------3-------------3-----------3--------------------------|
 G-|-----0---0-------0---0---------0---0-------0---0------------------------|
 D-|---0-------0---0-------------0-------0---0-------0----------------------|
 A-|-1-----------1---------1p0----------------------------------------------|
 E-|---------------------------3-----------3--------------------------------|

Interlude:
[Gm] [A] [Dm]  
 
 e-|-------0----------------------------------------1p0---------------------|
 B-|------------------------3-----------2---3-----3-----3-------------------|
 G-|---2s3---3-0-2--------0---0-------2---2-----2---------2-----------------|
 D-|-0------------------0---0---0---2---2-----0-----------------------------|
 A-|------------------------------0-------------------------0h1-------------|
 E-|------------------3-----------------------------------------------------|

[Gm] [Dm]  
 
 e-|------------------------------------------------------------------------|
 B-|-------3----------1-3-5-5/6---5h6p5-3-----------------------------------|
 G-|-----0---0--------------------------------------------------------------|
 D-|---0---0---0------0-----------------0-----------------------------------|
 A-|------------------------------------------------------------------------|
 E-|-3----------------------------------------------------------------------|

Solo (listen to the song for the right rhythm):
[Dm] [Gm/Bb] [Gm]  
 
 e-|------------------------------------------------------------------------|
 B-|------------------------------------------------------------------------|
 G-|-----5/7---s7-5---------------------------------------------------------|
 D-|-5h7------------7-5-5/7---7-5---3-----2h3-0---/8----7--2----------------|
 A-|------------------------------------------------------------------------|
 E-|------------------------------------------------------------------------|

[Dm] [Gm/Bb] [Gm]  
 
 e-|------------------------------------------------------------------------|
 B-|------------------------------------------------------------------------|
 G-|------------------------------------------------------------------------|
 D-|-0------0--------------------------------------------/8-7---------------|
 A-|-----0---------------------------------------------5--------------------|
 E-|------------8--6--5-/6-------6----1-3------5/6-3-6----------------------|

Lyrics:
Harmaa jouten, harmaa jouden
Ollut maassa hyvin pitkään vierellä vuoden
Läksi suoden multaisen muodon
Lopun aatos valveilla tai ei niin kuolen
(English translation)
Grey void, drunken reverie
Been too down too long
Stood against the awry years
Latter day, and the end
============================================================================
| / slide up
| \ slide down
| h hammer-on
| p pull-off
| ~ vibrato
| + harmonic
| x Mute note
============================================================================

Important: The song above is NOT stored on the Chordie server. The original song is hosted at www.azchords.com. Chordie works as a search engine and provides on-the-fly formatting. Chordie does not index songs against artists'/composers' will. To remove this song please click here.

Text color:
Chord color:
Chord grids: 
Font size:    
Page size: 

A Dm Gm Gm/Bb
Rate #1 of 3 versions

Jango Player

Login - add to songbook

SHARE PAGE  




You need to log in to post comments