Guitar Tabs, Chords and Lyrics
Major upgrade!! After one year development the new version of Chordie is now online! Please give feedback.


Born in a Rut   Testament

 
 D#|---------------------|--------------------------|----0---------|----0-------------------------|
 A#|---------------------|--------------------------|----0---------|----0-------------------------|
 F#|---------------------|--------------------------|----0---------|----0-------------------------|
 C#|-2---5/7/8-0---8\5/7-|-0---5/7/8-7-----8--8\5/7-|-0------8\5/7-|-0-----5/7/8-5-----8--8\5/7-2-|
 G#|-2---5/7/8-0---8\5/7-|-0---5/7/8-7-----8--8\5/7-|-0------8\5/7-|-0-----5/7/8-5-----8--8\5/7-2-|
 D#|-0---3/5/6-2---6\3/5-|-2---3/5/6-5-~5--6--6\3/5-|-2------6\3/5-|-2-----3/5/6-7-~5--6--6\3/5-0-| 

 


 


 [Riff 2 - Guitar 1] 


 

 
 D#|----------------------------------------|-----------------------------------------|
 A#|----------------------------------------|-----------------------------------------|
 F#|----9\4\7---6/7-7\6/7-------5-7-5-5/7/8-|----9\4\7----6/7-7\6/7-------5-7-5-8\7/5-|
 C#|-2--9\4\7---6/7-7\6/7-------5-7-5-5/7/8-|-2--9\4\7----6/7-7\6/7-------5-7-5-8\7/5-|
 G#|-2--7\6\5---4/5-5\4/5-------3-5-3-3/5/6-|-2--7\6\5----4/5-5\4/5-------3-5-3-6\5/3-|
 D#|-0-------0-0---0-----0-0-0-0-0-0-0------|-0--------0-0---0-----0-0-0-0-0-0-0------|

 


 * * * * * * * * * * * * * * * * * * * *


 


 

 
 D#|----------------------------------------|-----------------------------------------|
 A#|----------------------------------------|-----------------------------------------|
 F#|----9\4\7---6/7-7\6/7-------5-7-5-5/7/8-|----9\4\7---6/7-7\6/7--6-------------7-7-|
 C#|-2--9\4\7---6/7-7\6/7-------5-7-5-5/7/8-|-2--9\4\7---6/7-7\6/7--6-------------7-7-|
 G#|-2--7\6\5---4/5-5\4/5-------3-5-3-3/5/6-|-2--7\6\5---4/5-5\4/5--4-4-4-4-4-4-4-5-5-|
 D#|-0-------0-0---0-----0-0-0-0-0-0-0------|-0-------0-0---0--------------------0----|

 


 * * * * * * * * * * * * * *


 


 

 
 D#|----------------------------------------|-----------------------------------------|
 A#|----------------------------------------|-----------------------------------------|
 F#|----9\4\7---6/7-7\6/7-------5-7-5-5/7/8-|----9\4\7----6/7-7\6/7-------5-7-5-8\7/5-|
 C#|-2--9\4\7---6/7-7\6/7-------5-7-5-5/7/8-|-2--9\4\7----6/7-7\6/7-------5-7-5-8\7/5-|
 G#|-2--7\6\5---4/5-5\4/5-------3-5-3-3/5/6-|-2--7\6\5----4/5-5\4/5-------3-5-3-6\5/3-|
 D#|-0-------0-0---0-----0-0-0-0-0-0-0------|-0--------0-0---0-----0-0-0-0-0-0-0------|

 


 * * * * * * * * * * * * * * * * * * * *


 


 

 
 D#|----------------------------------------|-------------------------------------------|
 A#|----------------------------------------|-------------------------------------------|
 F#|----9\4\7---6/7-7\6/7-------5-7-5-5/7/8-|----9\4\7---6/7-7\6/7--6-------------7-7-7-|
 C#|-2--9\4\7---6/7-7\6/7-------5-7-5-5/7/8-|-2--9\4\7---6/7-7\6/7--6-------------7-7-7-|
 G#|-2--7\6\5---4/5-5\4/5-------3-5-3-3/5/6-|-2--7\6\5---4/5-5\4/5--4-4-4-4-4-4-4-5-5-5-|
 D#|-0-------0-0---0-----0-0-0-0-0-0-0------|-0-------0-0---0--------------------0------|

 


 * * * * * * * * * * * * * *


 


 [Riff 2 - Guitar 2] 


 

 
 D#|-------------------------------------|---------------------------------------|
 A#|-------------------------------------|---------------------------------------|
 F#|-------------------------------------|-----------6/7-7\6/7-------5-7-5-8\7/5-|
 C#|-2-----------------------------------|-2---------6/7-7\6/7-------5-7-5-8\7/5-|
 G#|-2-----------------------------------|-2---------4/5-5\4/5-------3-5-3-6\5/3-|
 D#|-0-----------------------------------|-0------------------0-0-0-0-0-0-0------|

 


 * * * * * * *


 


 

 
 D#|---------------------------------------|------------------------------------------|
 A#|---------------------------------------|------------------------------------------|
 F#|-----------6/7-7\6/7-------5-7-5-5/7/8-|-----------6/7-7\6/7--6-------------7-7-7-|
 C#|-2---------6/7-7\6/7-------5-7-5-5/7/8-|-2---------6/7-7\6/7--6-------------7-7-7-|
 G#|-2---------4/5-5\4/5-------3-5-3-3/5/6-|-2---------4/5-5\4/5--4-4-4-4-4-4-4-5-5-5-|
 D#|-0------------------0-0-0-0-0-0-0------|-0---------------------------------0------|

 


 * * * * * * * *


 


 [Riff 2 - Botb Guitars] 


 

 
 D#|----------------------------------------|-----------------------------------------|
 A#|----------------------------------------|-----------------------------------------|
 F#|----9\4\7---6/7-7\6/7-------5-7-5-5/7/8-|----9\4\7----6/7-7\6/7-------5-7-5-8\7/5-|
 C#|-2--9\4\7---6/7-7\6/7-------5-7-5-5/7/8-|-2--9\4\7----6/7-7\6/7-------5-7-5-8\7/5-|
 G#|-2--7\6\5---4/5-5\4/5-------3-5-3-3/5/6-|-2--7\6\5----4/5-5\4/5-------3-5-3-6\5/3-|
 D#|-0-------0-0---0-----0-0-0-0-0-0-0------|-0--------0-0---0-----0-0-0-0-0-0-0------|

 


 * * * * * * * * * * * * * * * * * * * *


 


 

 
 D#|----------------------------------------|-----------------------------------------|
 A#|----------------------------------------|-----------------------------------------|
 F#|----9\4\7---6/7-7\6/7-------5-7-5-5/7/8-|----9\4\7---6/7-7\6/7--6-------------7-7-|
 C#|-2--9\4\7---6/7-7\6/7-------5-7-5-5/7/8-|-2--9\4\7---6/7-7\6/7--6-------------7-7-|
 G#|-2--7\6\5---4/5-5\4/5-------3-5-3-3/5/6-|-2--7\6\5---4/5-5\4/5--4-4-4-4-4-4-4-5-5-|
 D#|-0-------0-0---0-----0-0-0-0-0-0-0------|-0-------0-0---0--------------------0----|

 


 * * * * * * * * * * * * * *


 

 
 D#|----------------------------------------|-----------------------------------------|
 A#|----------------------------------------|-----------------------------------------|
 F#|----9\4\7---6/7-7\6/7-------5-7-5-5/7/8-|----9\4\7----6/7-7\6/7-------5-7-5-8\7/5-|
 C#|-2--9\4\7---6/7-7\6/7-------5-7-5-5/7/8-|-2--9\4\7----6/7-7\6/7-------5-7-5-8\7/5-|
 G#|-2--7\6\5---4/5-5\4/5-------3-5-3-3/5/6-|-2--7\6\5----4/5-5\4/5-------3-5-3-6\5/3-|
 D#|-0-------0-0---0-----0-0-0-0-0-0-0------|-0--------0-0---0-----0-0-0-0-0-0-0------|

 


 * * * * * * * * * * * * * * * * * * * *


 


 

 
 D#|----------------------------------------|-------------------------------------------|
 A#|----------------------------------------|-------------------------------------------|
 F#|----9\4\7---6/7-7\6/7-------5-7-5-5/7/8-|----9\4\7---6/7-7\6/7--6-------------7-7-7-|
 C#|-2--9\4\7---6/7-7\6/7-------5-7-5-5/7/8-|-2--9\4\7---6/7-7\6/7--6-------------7-7-7-|
 G#|-2--7\6\5---4/5-5\4/5-------3-5-3-3/5/6-|-2--7\6\5---4/5-5\4/5--4-4-4-4-4-4-4-5-5-5-|
 D#|-0-------0-0---0-----0-0-0-0-0-0-0------|-0-------0-0---0--------------------0------|

 


 * * * * * * * * * * * * * *


 [Verse 1 - Botb Guitars] 


 

 
 D#|-------------------------|-------------------------|
 A#|-------------------------|-------------------------|
 F#|-------------------------|-------------------------|
 C#|-----5-----5-----5-----5-|-----5-----5-----5-----5-|
 G#|---2-----2-----2-----2---|---1-----1-----1-----1---|
 D#|-0-----0-----0-----0-----|-0-----0-----0-----0-----| x6

 


 * * * * * * * * * * * * * * * * * * * * * * * *


 


 [Bridge - Botb Guitars] 


 

 
 D#|-------------------------|-------------------------|
 A#|-------------------------|-------------------------|
 F#|-9----12-14-12--12-14-15-|-9----12-14-12--15-14-12-|
 C#|-9----12-14-12--12-14-15-|-9----12-14-12--15-14-12-|
 G#|-7----10-12-10--10-12-13-|-7----10-12-10--13-12-10-|
 D#|--0-0---0--0--0----------|--0-0---0--0--0----------|

 


 * * * * * * * * * *


 


 

 
 D#|-------------------------|-------------------------|
 A#|-------------------------|----------------------12-|
 F#|-9----12-14-12--12-14-15-|------------------12--12-|
 C#|-9----12-14-12--12-14-15-|---------12--12-14--14---|
 G#|-7----10-12-10--10-12-13-|-12-13-14--14------------|
 D#|--0-0---0--0--0----------|-------------------------|

 


 * * * * *


 


 [Verse 2 - Botb Guitars] 


 

 
 D#|-------------------------|-------------------------|
 A#|-------------------------|-------------------------|
 F#|-------------------------|-------------------------|
 C#|-----5-----5-----5-----5-|-----5-----5-----5-----5-|
 G#|---2-----2-----2-----2---|---1-----1-----1-----1---|
 D#|-0-----0-----0-----0-----|-0-----0-----0-----0-----| x6

 


 * * * * * * * * * * * * * * * * * * * * * * * *


 


 (Sorry guys but i can't listen very well the 5th riff)


 


 [Bridge - Botb Guitars] 


 

 
 D#|-------------------------|
 A#|----------------------12-|
 F#|------------------12--12-|
 C#|---------12--12-14--14---|
 G#|-12-13-14--14------------|
 D#|-------------------------|

 


 


 [Cborus - Botb Guitars] 


 

 
 D#|--------------------------------------------------|-------------------|
 A#|--------------------------------------------------|-------------------|
 F#|-------------------------------7-14-13-12---------|-------------------|
 C#|-2----------5----------12--12--7---------14-13-12-|-7-----7-----8-5-7-|
 G#|-2--7-10-7--5--12-13-14--14----5------------------|-7-----7-----8-5-7-|
 D#|-0----------3-------------------------------------|-5-0-0-5-0-0-6-3-5-| x4

 


 * * * *


 


 [Bridge - Botb Guitars] 


 

 
 D#|-------------------------|-------------------------|
 A#|-------------------------|-------------------------|
 F#|-9----12-14-12--12-14-15-|-9----12-14-12--15-14-12-|
 C#|-9----12-14-12--12-14-15-|-9----12-14-12--15-14-12-|
 G#|-7----10-12-10--10-12-13-|-7----10-12-10--13-12-10-|
 D#|--0-0---0--0--0----------|--0-0---0--0--0----------|

 


 * * * * * * * * * *


 


 

 
 D#|-------------------------|--------------------------|
 A#|-------------------------|----------------------12--|
 F#|-9----12-14-12--12-14-15-|------------------12--12--|
 C#|-9----12-14-12--12-14-15-|---------12--12-14--14----|
 G#|-7----10-12-10--10-12-13-|-12-13-14--14-------------|
 D#|--0-0---0--0--0----------|--------------------------|

 


 * * * * *


 


 [Solo Riff] 


 

 
 D#|-------------------------------------------------|
 A#|-------------------------------------------------|
 F#|-------------------------------------------------|
 C#|-------------------------------5\4---8/7---5/7/4-|
 G#|-------------------------------5\4---8/7---5/7/4-|
 D#|-0-0-0-0-0-0-0-0---0-0-0-0---0-3\2-0-6/5-0-3/5/6-| x4
 D#|-----------------|
 A#|-----------------|
 F#|-----------------|
 C#|-8---------------|
 G#|-8---------------|
 D#|-6-6-6-6-6-6-6-6-| x4

 


 * * * * * * *


 


 (All the solo riff is repeated twice)


 


 [Riff 2 - Botb Guitars] 


 

 
 D#|----------------------------------------|-----------------------------------------|
 A#|----------------------------------------|-----------------------------------------|
 F#|----9\4\7---6/7-7\6/7-------5-7-5-5/7/8-|----9\4\7----6/7-7\6/7-------5-7-5-8\7/5-|
 C#|-2--9\4\7---6/7-7\6/7-------5-7-5-5/7/8-|-2--9\4\7----6/7-7\6/7-------5-7-5-8\7/5-|
 G#|-2--7\6\5---4/5-5\4/5-------3-5-3-3/5/6-|-2--7\6\5----4/5-5\4/5-------3-5-3-6\5/3-|
 D#|-0-------0-0---0-----0-0-0-0-0-0-0------|-0--------0-0---0-----0-0-0-0-0-0-0------|

 


 * * * * * * * * * * * * * * * * * * * *


 


 

 
 D#|----------------------------------------|-----------------------------------------|
 A#|----------------------------------------|-----------------------------------------|
 F#|----9\4\7---6/7-7\6/7-------5-7-5-5/7/8-|----9\4\7---6/7-7\6/7--6-------------7-7-|
 C#|-2--9\4\7---6/7-7\6/7-------5-7-5-5/7/8-|-2--9\4\7---6/7-7\6/7--6-------------7-7-|
 G#|-2--7\6\5---4/5-5\4/5-------3-5-3-3/5/6-|-2--7\6\5---4/5-5\4/5--4-4-4-4-4-4-4-5-5-|
 D#|-0-------0-0---0-----0-0-0-0-0-0-0------|-0-------0-0---0--------------------0----|

 


 * * * * * * * * * * * * * *


 


 [Riff 3 - Botb Guitars] 


 

 
 D#|--------------------------------------------------|-------------------|
 A#|--------------------------------------------------|-------------------|
 F#|-------------------------------7-14-13-12---------|-------------------|
 C#|-2----------5----------12--12--7---------14-13-12-|-7-----7-----8-5-7-|
 G#|-2--7-10-7--5--12-13-14--14----5------------------|-7-----7-----8-5-7-|
 D#|-0----------3-------------------------------------|-5-0-0-5-0-0-6-3-5-| x4

 


 


 Riff 1 - Both Guitars]


 

 
 D#|----------------------|---0----------------------|---0---------|---0-------------------------|
 A#|----------------------|---0----------------------|---0---------|---0-------------------------|
 F#|----------------------|---0----------------------|---0---------|---0-------------------------|
 C#|-2---5/7/8-0---8\5/7--|-0---5/7/8-7-----8--8\5/7-|-0-----8\5/7-|-0----5/7/8-5-----8--8\5/7-2-|
 G#|-2---5/7/8-0---8\5/7--|-0---5/7/8-7-----8--8\5/7-|-0-----8\5/7-|-0----5/7/8-5-----8--8\5/7-2-|
 D#|-0---3/5/6-2---6\3/5--|-2---3/5/6-5-~5--6--6\3/5-|-2-----6\3/5-|-2----3/5/6-7-~5--6--6\3/5-0-| 


Important: The song above is NOT stored on the Chordie server. The original song is hosted at www.azchords.com. Chordie works as a search engine and provides on-the-fly formatting. Chordie does not index songs against artists'/composers' will. To remove this song please click here.

This song is displayed as text-only. Transposing and tuning is only available for chordpro-songs.
Rate #1 of 1 versions

Login - add to songbook

SHARE PAGE  



You need to log in to post comments