Guitar Tabs, Chords and Lyrics
Login is temporarily disabled for some users. Do not panic. Will be back in an hour or two. DO NOT REREGISTER!!


Lostmyhead  The 1975

[Fmaj7] [Gmaj] [Em7] [Am7] [Gmaj]  
 
 e|----1--------3--------0--------0----3----|
 B|----1--------0--------0--------1----0----|
 G|----2--------0--------0--------0----0----|
 D|----2--------0--------0--------2----0----|
 A|----3--------2--------2--------0----2----|
 E|----1--------3--------0--------x----3----|

Lead comes in at 1:20
 
 e|-----------------------------------------------|
 B|--13~--------12~--------8~--------5~-----------|
 G|-----------------------------------------------|
 D|-----------------------------------------------|
 A|-----------------------------------------------|
 E|-----------------------------------------------|
 e|-----------------------------------------------|
 B|--13~--------12~--------8~---------------------|
 G|----------------------------------7~-----------|
 D|-----------------------------------------------|
 A|-----------------------------------------------|
 E|-----------------------------------------------|
 e|-----------------------------------------------|
 B|--13~--------12~--------8~--------5~-----------|
 G|-----------------------------------------------|
 D|-----------------------------------------------|
 A|-----------------------------------------------|
 E|-----------------------------------------------|
 e|-----------------------------------------------|
 B|--13~--------12~--------8~---------------------|
 G|----------------------------------7~-----------|
 D|-----------------------------------------------|
 A|-----------------------------------------------|
 E|-----------------------------------------------|

Lead at 3:20
 
 e|-----------------------------------------------|
 B|--13~--------12~--------8~--------------5~-----|
 G|----------------------------------7~-----------|
 D|-----------------------------------------------|
 A|-----------------------------------------------|
 E|-----------------------------------------------|
 e|-----------------------------------------------|
 B|--13~--------12~--------8~---------------------|
 G|----------------------------------7~-----------|
 D|-----------------------------------------------|
 A|-----------------------------------------------|
 E|-----------------------------------------------|
 e|-----------------------------------------------|
 B|--13~--------12~--------8~--------------5~-----|
 G|----------------------------------7~-----------|
 D|-----------------------------------------------|
 A|-----------------------------------------------|
 E|-----------------------------------------------|
 e|-----------------------------------------------|
 B|--13~--------12~--------8~---------------------|
 G|----------------------------------7~-----------|
 D|-----------------------------------------------|
 A|-----------------------------------------------|
 E|-----------------------------------------------|

(Outro)
 
 e|----1--------3--------0--------0----3----|
 B|----1--------0--------0--------1----0----|
 G|----2--------0--------0--------0----0----|
 D|----2--------0--------0--------2----0----|
 A|----3--------2--------2--------0----2----|
 E|----1--------3--------0--------x----3----|

end on
 
 e|----1----|
 B|----1----|
 G|----2----|
 D|----2----|
 A|----3----|
 E|----1----| 


Important: The song above is NOT stored on the Chordie server. The original song is hosted at www.azchords.com. Chordie works as a search engine and provides on-the-fly formatting. Chordie does not index songs against artists'/composers' will. To remove this song please click here.

Text color:
Chord color:
Chord grids: 
Font size:    
Page size: 

Am7 Em7 Fmaj7 Gmaj
Rate #1 of 1 versions

Jango Player

Login - add to songbook

SHARE PAGE  



You need to log in to post comments