Guitar Tabs, Chords and Lyrics
Update 25:10. 13:00. Site is back up running again. Songbooks are recovered. Woring on getting search back up..


Wrong  The Airborne Toxic Event

Intro riff
[A] [A] [F#m] [F#m] [E] [E]  
 
 E ----9-9-9-9-|----9-9-9-9-|----------------|----------------|-----------|-----------|
 A -10---------|-10---------|----10-10-10-10-|----10-10-10-10-|---9-9-9-9-|---9-9-9-9-|
 D ------------|------------|-11-------------|-11-------------|-9---------|-9---------|
 G ------------|------------|----------------|----------------|-----------|-----------|
 B ------------|------------|----------------|----------------|-----------|-----------|
 E ------------|------------|----------------|----------------|-----------|-----------|

[D] [D] [D]  
 
 E----1010-|----1010-|----101010-9-7-5-|
 A---------|---------|-----------------|
 D-77------|-77------|-77--------------|
 G---------|---------|-----------------|
 B---------|---------|-----------------|
 E---------|---------|-----------------|

[A]All my young l[F#m]ife
I??ve been trying t[E]o say
Just one thing [D]right
[A]And now
We??ve come to th[F#m]e day
You??re here in m[E]y arms
I don??t know what t[D]o say
I believe I was [A]wrong
Probably most of my [F#m]life
Am I just hearing you [E]wrong?
I??m just watching th[D]e fire light
intro
I [A]see the look in your [F#m]eyes
Am I trying too h[E]ard?
Am I doing this r[D]ight?
So I [A]fall
I fall down to my [F#m]knees
I??m not easy t[E]o soothe
I??m never easy t[D]o please
I believe I was [A]wrong
Probably most of my [F#m]life
Am I just hearing you [E]wrong?
I??m just watching th[D]e fire light
I don??t care if it[A]??s right
I know your friends are op[F#m]posed
But we??ve still got [E]tonight
We??ll just keep o[D]ur eyes closed
solo (maybe ill get around to that sometime)
I believe I was w[A]rong
Probably most of my l[F#m]ife
Am I just hearing you w[E]rong?
I??m just watching th[D]e fire light
I don??t care if it?[A]?s right
I know your friends are op[F#m]posed
But we??ve still got [E]tonight
We??ll just keep o[D]ur eyes closed

Important: The song above is NOT stored on the Chordie server. The original song is hosted at www.azchords.com. Chordie works as a search engine and provides on-the-fly formatting. Chordie does not index songs against artists'/composers' will. To remove this song please click here.

Text color:
Chord color:
Chord grids: 
Font size:    
Page size: 

A D E F#m
Rate #1 of 1 versions

Jango Player

Login - add to songbook

SHARE PAGE  




You need to log in to post comments