Guitar Tabs, Chords and Lyrics
Server problems seems to be fixed. Chordie has been experiencing problems with songs disappearing. These issues now seems to be fixed, but still verifying the fix. If you find anything strange, please email admin@chordie.com.


All Fucked Up  The Amity Affliction

[Verse 1] 
x3 4th time
 
 e|-------------------------------| e|------2------2-------0------0----|
 B|------3------3------3------3---| B|----3---3--3---3---3---3--3---3--|
 G|----2---2--2---2--2---2--2---2-| G|--2--------------2---------------|
 D|--0----------------------------| D|---------------------------------|
 A|-------------------------------| A|---------------------------------|
 E|-------------------------------| E|---------------------------------|

[Pre-Cborus] 
All the [G]panic, depression, the [A]hurt and regret
Lying [Bm]to myself -
"I don't [D]think of death..."
All the [G]ups all the downs
All the [A]petty concerns
My [Bm]whole world's imploding
I [D]can't find the words
[Cborus] 
Cause the [G]truth is... I[A]'m f**ked up
The [Bm]truth is that I'm all f**ked up - like [A]you
Yeah we're all f**ked up it's [G]true
And the [Bm]truth is, they don't hear the words we [A]say
Yeah they all just turn [G]away
[Break and Verse 2 is tbe same as verse 1] 
Picking part x3 the 4th time
 
 e|-------------------------------| e|------2------2-------0------0----|
 B|------3------3------3------3---| B|----3---3--3---3---3---3--3---3--|
 G|----2---2--2---2--2---2--2---2-| G|--2--------------2---------------|
 D|--0----------------------------| D|---------------------------------|
 A|-------------------------------| A|---------------------------------|
 E|-------------------------------| E|---------------------------------|

[Pre-Cborus] 
All the [G]panic, depression, the [A]hurt and regret
Lying [Bm]to myself -
"I don't [D]think of death..."
All the [G]ups all the downs
All the [A]petty concerns
My [Bm]whole world's imploding
I [D]can't find the words
[Cborus] 
Cause the [G]truth is... I[A]'m f**ked up
The [Bm]truth is that I'm all f**ked up - like [A]you
Yeah we're all f**ked up it's [G]true
And the [Bm]truth is, they don't hear the words we [A]say
Yeah they all just turn [G]away
[Outro] 
 
 e|------------------------------------------------------------------|
 B|------------------------------------------------------------------|
 G|------------------------------------------------------------------|
 D|-------7-----------7-----------7-------4-----------4-----------4--|
 A|----5----5-----5-----5-----5-------5-----5-----5-----5-----5------|
 E|--7---7------7---7-------7---7---5---5-------5---5-------5---5----|
 e|------------------------------------------------------------------|
 B|------------------------------------------------------------------|
 G|------------------------------------------------------------------|
 D|-------4-----------4-----------2-------2-----------2-----------2--|
 A|----5----5-----5-----5-----5-------4-----4-----4-----4-----4------|
 E|--3---3------3---3-------3---3---2---2-------2---2-------2---2----|

[Bm]Will you save my [A]life.[G]. Or just say good[F#m]bye?

Important: The song above is NOT stored on the Chordie server. The original song is hosted at www.azchords.com. Chordie works as a search engine and provides on-the-fly formatting. Chordie does not index songs against artists'/composers' will. To remove this song please click here.

Text color:
Chord color:
Chord grids: 
Font size:    
Page size: 

A Bm D F#m G
Rate #1 of 2 versions

Jango Player

Login - add to songbook

SHARE PAGE  




You need to log in to post comments