Guitar Tabs, Chords and Lyrics
Server problems seems to be fixed. Chordie has been experiencing problems with songs disappearing. These issues now seems to be fixed, but still verifying the fix. If you find anything strange, please email admin@chordie.com.


The Ghost of the River  The Anniversary

[G] [Em] [C] [Am] [D] [Em7]  
 
 e|--3--0--0--0--2--| Em could be played as e|--0--|
 B|--3--0--1--1--3--| B|--3--|
 G|--0--0--0--2--2--| G|--0--|
 D|--0--2--2--2--0--| D|--2--|
 A|--2--2--3--0--0--| A|--2--|
 E|--3--0--0--0--0--| E|--0--|

Walk [G]slowly the [Em]rest of your [C]life my [G]dear [C] [G]
See [G]clearly the [Em]path of the [C]arrow is [G]mirrored [C] [G]
The [Em]river will [C]dry up every [G]year
The [Em]sun should [C]drink every last [G]tear
It [Em]floats [C]above the casket's [G]leer
So [Em]lay down next to your [Am]brother and go [D]blind
Second Guitar (start playing this when it says "Keep moving...", and at the end)
 
 e|-------------------------------------------------|
 B|-8-7-5-3-1-0-8-7-5-3-1-0-0-1-0-0-1-0-0-1-0-0-1-0-|
 G|------------------------0-----0-----0-----0------|
 D|-------------------------------------------------|
 A|-------------------------------------------------|
 E|-------------------------------------------------| 

Walk [G]slowly the [Em]rest of your [C]life my [G]dear [C] [G]
How [G]lovely, the [Em]ghost of the [C]river draws [G]near [C] [G]
Keep [G]moving and let [Em]faith poor out in [C]blood from ear to [G]ear [C] [G]
Burn your [G]money, re[Em]member it [C]does you no good around [G]here [C] [G]
Chorus:
The [Em]river will [C]dry up every [G]year
The [Em]sun should [C]drink every last [G]tear
It [Em]floats [C]above the casket's [G]leer
So [Em]lay down next to your [Am]brother and go [D]blind
Ending(also second guitar part is played here)
 
 e|-7-7-7--19-19-19--14-14-14--12-12-12-| 


Important: The song above is NOT stored on the Chordie server. The original song is hosted at www.azchords.com. Chordie works as a search engine and provides on-the-fly formatting. Chordie does not index songs against artists'/composers' will. To remove this song please click here.

Text color:
Chord color:
Chord grids: 
Font size:    
Page size: 

Am C D Em Em7 G
Rate #3 of 3 versions

Login - add to songbook

SHARE PAGE  



You need to log in to post comments