Guitar Tabs, Chords and Lyrics
Server problems seems to be fixed. Chordie has been experiencing problems with songs disappearing. These issues now seems to be fixed, but still verifying the fix. If you find anything strange, please email admin@chordie.com.


Casino Knockout  The Bones

The Bones are from Sweden and they play something between street punk and rockabilly.
 
 ------------------------------------------------------------------------------

SONG NAME - Band Name
 
 ------------------------------------------------------------------------------

Tuning:standard
b = ^ = bend
T = tapping
INTRO
 
 e|---------------------------------------------------------------------------|
 B|---------------------------------------------------------------------------|
 G|-------------------------5-------------------------------------------------|
 D|-5-----------3-----------5---x16-------------------------------------------|
 A|-5---x8------3---x8------3-------------------------------------------------|
 E|-3-----------1-------------------------------------------------------------|

|P.m.....................
|
 
 e|---------------------------------------------------------------------------|
 B|---------------------------------------------------------------------------|
 G|---5p0-3--------5p0-3--------5p0-3--------5p0-3----------------------------|
 D|-5-------5-3--5-------5-3--5-------5-3--5-------5-3------------------------|
 A|---------------------------------------------------------------------------|
 E|---------------------------------------------------------------------------|

VERSE
[G]Hangin'out for some dollarsigns
I rolled the dices, got lucky 13 allr[C]ight!
The winnerjacket's [C]mine[F] [G]
[G]I made a full-house outta dead-mans hand
The aces up my sleeve got me rich
But I got even m[C]ore
A complimentary whore[F] [G]
Chorus:
[G]Those sunny da[F]ys are long g[C]one and far away[F] [G]
G F C(in the background there´s some H|--13--|with wah)
To meet the devil face to face
[G]I even p[F]ut my lousy s[C]oul up for sale[F] [G]
G F C (got a 2nd guitar? remember wahwah? :)
'Cos I'll be back again some day
 
 --------Repeat INTRO twice-------------|
 ---------one more VERSE---------------|

[G]Those sunny d[F]ays are long g[C]one and far away[F] [G]
To meet the devil face to face
I even put my lousy soul up for sale
[G]'Cos I'll be b[F]ack again some d[D]ay
SOLO
partI
[A] [G] [D] [D]  
 
 e|-----------------------------------------------------------------------------|
 B|-----------------------------------------------------------------------------|
 G|-----------------------------------------------------------------------------|
 D|--10b---------10b----------10b----------10b----------------------------------|
 A|------12\\\\------12\\\\-------12\\\\-------12\\\\---------------------------|
 E|-----------------------------------------------------------------------------|

part II
A G D T T T T T T T T T T T T ^
 
 e|-------------------------------------5-3-0--5-3-0--5-3-0--5-3-0-------5---------|
 B|-/10------10----8--------------5-----play-three-times,--------------------------|
 G|-------------9----7--7h9p7----7b--------1st-time--"A"---------------------------|
 D|---------------------------7-------------2nd-------"G"------and-then------------|
 A|-------------------------------------------3rd-------"D"------------------------|
 E|--------------------------------------------------------------------------------|

[A] [G] [D]  
 
 e|--5-5-8--5-----------------------------------------------------------------|
 B|--------------------------5------------------------------------------------|
 G|---------------2-2-5-2----7fullbend----------------------------------------|
 D|---------------------------------------------------------------------------|
 A|---------------------------------------------------------------------------|
 E|---------------------------------------------------------------------------|

Chorus:
[G]Those Vegas d[F]ays are long go[C]ne and far away[F] [G]
Now I'm drinkin' with the dogs and pray
I wanna go back to the world of sin to stay
[G]Yeah I'll be b[F]ack again some d[A]ay
[F]Yeah I'll be b[G]ack again some d[A]ay
[F]Yeah I'll be b[G]ack again some d[C]ay
there is a kind of background solo in the last 4 lines but i cant figure it out...
| / slide up
| \ slide down
| h hammer-on
| p pull-off
| ~ vibrato
| + harmonic
| x Mute note
=============================================================================

Important: The song above is NOT stored on the Chordie server. The original song is hosted at www.azchords.com. Chordie works as a search engine and provides on-the-fly formatting. Chordie does not index songs against artists'/composers' will. To remove this song please click here.

Text color:
Chord color:
Chord grids: 
Font size:    
Page size: 

A C D F G
Rate #1 of 3 versions

Login - add to songbook

SHARE PAGE  



You need to log in to post comments