Guitar Tabs, Chords and Lyrics
Server problems seems to be fixed. Chordie has been experiencing problems with songs disappearing. These issues now seems to be fixed, but still verifying the fix. If you find anything strange, please email admin@chordie.com.


Long Gone  The Bones

 
 -------------------------------------------------------------------------------
 -------------------------------------------------------------------------------

Tuning: standard _________ _______________
|1. |2.
 
 e|--0-0--0-3-0------------------|----------|------------------------------------|
 B|-------------------0----------|----------|------------------------------------|
 G|-------------2-2--2-2-0-0--0--|0-2-2-2-0-|------------------------------------|
 D|----------------------------2-|----------|--5--2--5--2------------------------|
 A|------------------------------|----------|--5--2--5--2------------------------|
 E|------------------------------|----------|--3--0--3--0------------------------|

E A G A x2
 
 e|--0-0--0-3-0---------------------------|--------------------------------------|
 B|------------------0--------------------|--------------------------------------|
 G|------------2-2--2-2-0-0--0--0-2-2-2-0-|--------------------------------------|
 D|---------------------------2-----------|--------------------------------------|
 A|---------------------------------------|--------------------------------------|
 E|---------------------------------------|--------------------------------------|

[E]f**k you what ya t[A]rying to do I g[G]ave you all my love and I s[A]till wait for you
[E]Face down baby[A], look out I'm gi[G]ving you a ticket to my u[A]nderground
[A]Going down[G] cause it's home to [B]me
Chorus:
B E D A E G E G E<--- play only 2. time
Baby, baby long gone, and far away
-----Repeat Intro part II
[E]Shoot up,[A] breathe in, you le[G]an against my shoulder and I g[A]ive you my sin
[E]Everything is[A] built on trust,[G] everything I've d[A]one I lost
You cry baby, I pray maybe, for fortune and glory again
This is my reallity so take it or leave it I don't care
[A]Going down[G] cause it's home to m[B]e
 
 -----Repeat Chorus-----

Solo (Whit lots of Wahwah)
 
 e|------------------------------------7---7-----------7--7---7---------------|
 B|------------------------------------8---8-----------8--8---8-------8-------|
 G|-------------------------------------9---9--------------9---9-7---9-9------|
 D|-------5-7-9--7-5---5--9--7-5---5----------7---7--7------------------------|
 A|-7-7--7----------7-7---------7---7----------5---5--5-----------------------|
 E|---------------------------------------------------------------------------|
 e|---------------------------------------------------------------------------|
 B|-12--12--12----------------------------------------------------------------|
 G|-14b-14b-14b--12-------------16-16-16-16-16-16-16-16--16-14-12-------------|
 D|-----------------14-12-14-------------------------------------14-----------|
 A|---------------------------------------------------------------------------|
 E|---------------------------------------------------------------------------|
 e|---------------------------------------------------------------------------|
 B|-8--8--8--8--8--8--8--8--8~~~~~--------------------------------------------|
 G|--9--9--9--9--9--9--9--9---------------------------------------------------|
 D|---------------------------------------------------------------------------|
 A|---------------------------------------------------------------------------|
 E|---------------------------------------------------------------------------|

Same Chords
You think you're better than me but I've seen things you've never seen
About myself, about you so don't come here and tell me what to do
I cry baby, you pray maybe, we'll get back together some day
But being a loser without a wife that's something I'm not, not in my life
Going down cause it's home to me
 
 ------Repeat chorus a few times

| / slide up
| \ slide down
| h hammer-on
| p pull-off
| ~ vibrato
| + harmonic
| x Mute note
===============================================================================

Important: The song above is NOT stored on the Chordie server. The original song is hosted at www.azchords.com. Chordie works as a search engine and provides on-the-fly formatting. Chordie does not index songs against artists'/composers' will. To remove this song please click here.

Text color:
Chord color:
Chord grids: 
Font size:    
Page size: 

A B E G
Rate #1 of 2 versions

Jango Player

Login - add to songbook

SHARE PAGE  



You need to log in to post comments