Guitar Tabs, Chords and Lyrics
Major upgrade!! After one year development the new version of Chordie is now online! Please give feedback.


Anyone Alive?  The Chameleons

The Chameleons - why call it anything
song :anyone alive
normal tuning
beautiful easy song to play, mainly acoustic guitar
with electric with chorus effect(Dave's part I guess)
===============================
INTRO:
======
dave's guitar, chorus/delay effect
 
 E||---------------------------|------------------------------|
 B||---------------3-3--5-5----|------------3-3---------------|
 G||--2-2--4-4--5--------------|-2-2--4-4-5------2h4-2h4-2----|X2
 D||---------------------------|------------------------------|
 A||---------------------------|------------------------------|
 E||---------------------------|------------------------------|

Acoustic guitar
[Am] [D7] [Dsus4/C]  
 
 E||---0---2---3--------|
 B||---1---1---1--------|
 G||---2---2---2--------|
 D||---2---0---0--------|
 A||--------------------|
 E||--------------------|

x2 times
Arpegio with Chorus
[Am] [D7] [Dsus4/C]  
 
 E||------0----2----3-2---|
 B||-----1----1---1-------|
 G||----2---2---2---------|
 D||---2---0---0----------|
 A||----------------------|
 E||----------------------|

x4 times
===============================
VERSE:
=======
[F] [Em] [G] [Am] [Em]  
 
 E||-1---0---1--|-----3----5---------------|
 B||-1---1---1--|----3----5----5-----5-----|
 G||-2---2---2--|---4----5-------4-------4-|
 D||-3---2---3--|--5----7----2------2------|
 A||-3---0---3--|--------------------------|
 E||-1-------1--|--------------------------|

repeat X2
"Anyone alive can see the snow..
[G]  
 
 E||------3-------5-----1-----|
 B||-----3-------5--------1---|
 G||----4------5----2---------|
 D||---5-----7----------------|
 A||--------------------------|
 E||--------------------------|

repeat
[Am] [D7] [Dsus4/C]  
 
 E||------0----2----3----|
 B||-----1----1---1------|
 G||----2---2---2--------|
 D||---2---0---0---------|
 A||---------------------|
 E||---------------------|

x4 times
 
 E||----------------------|--------------------|
 B||--1-------------------|-1------------------|
 G||----2-0-2-------------|---2-0-2------------|
 D||-----------2-4--5-5-4-|---------2-4--5--4--|
 A||----------------------|--------------------|
 E||----------------------|--------------------|
 E||----------------------|-----------------|
 B||--1-------------------|-----------------|
 G||----2-0-2-------------|-----------------|
 D||-----------2-4--5-5-4-|-0-2-4-2---------|
 A||----------------------|-----------2---0-|


Important: The song above is NOT stored on the Chordie server. The original song is hosted at www.azchords.com. Chordie works as a search engine and provides on-the-fly formatting. Chordie does not index songs against artists'/composers' will. To remove this song please click here.

Text color:
Chord color:
Chord grids: 
Font size:    
Page size: 

Am D7 Dsus4/C Em F G
Rate #3 of 4 versions

Jango Player

Login - add to songbook

SHARE PAGE  




You need to log in to post comments