Guitar Tabs, Chords and Lyrics
Update 25:10. 13:00. Site is back up running again. Songbooks are recovered. Woring on getting search back up..


Burning for No One  The Cribs

Chords Used:
[F#m] [E] [D] [A] [A/G#] [B] [Bm]  
 
 e|---9----7---5-----5---5-----7---7-----|
 B|---10---9---7-----5---5-----7---7-----|
 G|---11---9---7-----6---6-----8---7-----|
 D|---11---9---7-----7---7-----9---9-----|
 A|---9----7---5-----7---7-----9---9-----|
 E|------------------5---4-----7---7-----|

Verse:
[F#m] [E] Da[D]ncing o[E]n th[F#m]e screen,
[E] [D]I still see[E] you a[F#m]s
The[E] star p[D]ower you[E] used to have[A]
([A]Rose tinted [A/G#]romance)
[F#m] [E] Li[D]ke a me[E]ssag[F#m]e from the past
[E] [D]Embarrassed t[E]hough [F#m]I am
[E] I'll still [D]watch you t[E]hrough my hands[A]
[A](It's a healthy [A/G#]interest I'll[D] never have)
 
 e|------------------------5-------------|
 B|------------------------5-------------|
 G|------------------------6-------------|
 D|------------------------7-------------|
 A|------------------------7-------------|
 E|---0--2--0??--2--0--2--5-5-------------|

Chorus:
[A] I'm [A/G#]feeling so [D]eternally grateful
Now I reali[A]se
[A] Like a[A/G#] candle on a[D] vacant table
Being so d[E]enied
[D]Burning for [E]no one
[D]I'm burning for no one[A]
[A] I gu[A/G#]ess I'll be[D] eternally grateful
Cos I real[A]ise
[A] Like[A/G#] a candle o[D]n a vacant table
Hidden from you[E]r eyes
[D]Burning for n[E]o one
[D]I'm burning for no one[B] [Bm] [E]
Verse:
[F#m] [E] [D]Projecting,[E] yeah I [F#m]guess
[E]But I [D]talk to [E]those the [F#m]best
[E]Who'll[D] never [E]hear me[A]
[A] (Rose tinted[A/G#] romance)
[F#m] [E] [D]At the [E]altar [F#m]of
[E]your y[D]ounger self[E] I'm l[F#m]eft
[E] to t[D]ell you[E]r story[A]
[A] (It's a healt[A/G#]hy interest I'll n[D]ever have)
 
 e|------------------------5-------------|
 B|------------------------5-------------|
 G|------------------------6-------------|
 D|------------------------7-------------|
 A|------------------------7-------------|
 E|---0--2--0??--2--0--2--5-5-------------|

Chorus:
[A] I'm feeli[A/G#]ng so etern[D]ally grateful
Now I reali[A]se
[A] Like a[A/G#] candle on a[D] vacant table
Being so d[E]enied
[D]Burning for [E]no one
[D]I'm burning for no one[A]
[A] I gu[A/G#]ess I'll be[D] eternally grateful
Cos I real[A]ise
[A] Like[A/G#] a candle o[D]n a vacant table
Hidden from you[E]r eyes
[D]Burning for n[E]o one
[D]I'm burning for no one[B] [Bm] [E]
End on F#m (slide down frets)

Important: The song above is NOT stored on the Chordie server. The original song is hosted at www.azchords.com. Chordie works as a search engine and provides on-the-fly formatting. Chordie does not index songs against artists'/composers' will. To remove this song please click here.

Text color:
Chord color:
Chord grids: 
Font size:    
Page size: 

A A/G# B Bm D E F#m
Rate #1 of 1 versions

Login - add to songbook

SHARE PAGE  




You need to log in to post comments