Guitar Tabs, Chords and Lyrics
Update 25:10. 13:00. Site is back up running again. Songbooks are recovered. Woring on getting search back up..


River in the Pines  The Deep Dark Woods

Standard Tuning
Capo 4th Fret
Intro
[Am] [C] [G] [Dm] [Am]  
[C] [C] [G] [F] [Am]  
Lyrics
[Am]Oh Mary wa[C]s a [G]maiden
[Dm]The birds began[Am] to sing
[C]She was fairer than [G]the bloomin‚??
[F]Rose in early [Am]spring
Her thoughts were fair and happy
The mornin‚?? was gay and fine
Her lover was a river boy
From the river in the pines
Charlie he got married
To his Mary in the spring
When the trees were budding early
And the birds began to sing
Early in the autumn
When the fruit is in the wine
I‚??ll return to you my darling
From the river in the pines
Solo 1
Early in the mornin‚??
Wisconsin‚??s dreary clime
Where they rolled the fatal rapids
For the last and fatal time
They found the bodies lying on
The rocky shore below
Where the silent water rippled
And the whisperin‚?? cedars blow
Now every raft of lumber
That comes down the Chippewa
There‚??s a lovely grave that‚??s visited
By the drivers on their way
They lay the wild flowers on
In the mornin‚?? fair and fine
It‚??s a grave of two young lovers
From the river in the pines
Solo 2
Key Board Solo
Oh Mary was a maiden
And the birds began to see
She was fairer than the bloomin‚??
Rose in early spring
Solo 3
[End]  
Key:
/ - slide up
\ - slide down
v - vibrato
b - bend
r - release bend
p - pull off
h - hammer on
 
 ----------------

Solo 1
 
 E|-------------------------------------------------------------------------------|
 B|-----------------------------------------------12------------------------------|
 G|---------------------------------------9h11b13----11b13r11--9----9-9h11-9------|
 D|----------------------------------9h11------------------------11----------11v--|
 A|--11-11-12-11-9-7-9v---------9h11----------------------------------------------|
 E|-------------------------------------------------------------------------------|
 E|--------------------9-------------------------------------------|
 B|---------12-9-12b14---12-9-------------------12-----------------|
 G|-9-11b13-------------------12-11-9---9-11b13----11b13r11-9-11v--|
 D|-----------------------------------11---------------------------|
 A|----------------------------------------------------------------|
 E|----------------------------------------------------------------|
 E|-------------------------------------------------------------------9-------------------|
 B|-12-9---------------------------------------------------12-9-12b14---12-9--------------|
 G|------11-9----9-9h11v---11p9----------------------11b13-------------------12-11-9-11v--|
 D|-----------11----------------11-9-9h11v------------------------------------------------|
 A|---------------------------------------------------------------------------------------|
 E|---------------------------------------------------------------------------------------|
 E|------------------------------------------------------|
 B|-12-9-----------------12-14v-----14p12----12--12h14v--|
 G|------11-9----9-11/13------------------13-------------|
 D|-----------11-----------------------------------------|
 A|------------------------------------------------------|
 E|------------------------------------------------------|
 E|---------------------------------------------------------|
 B|-14p12----12---------------------------------------------|
 G|-------13----13-11\9----11p9-----------------9-11b13r11--|
 D|---------------------11----------------9h11--------------|
 A|-------------------------------7--9/11-------------------|
 E|---------------------------------------------------------|
 E|--------------------------------------------------------------|
 B|--------------------------------------12----------------------|
 G|-9----9-------------------9-11b13--------13r11--9-9h11-9------|
 D|---11---11--99v------9h11---------------------------------11v-|
 A|--------------------------------------------------------------|
 E|--------------------------------------------------------------|

Solo 2
 
 E|--------------------------------------------------------------------|
 B|--------12-9-----------------------------12-9-----------------------|
 G|-11b13--------11-9-11p9----9-9h11v------------11-9----9-9h11-9------|
 D|------------------------11-------------------------11----------11v--|
 A|--------------------------------------------------------------------|
 E|--------------------------------------------------------------------|
 E|---------------------14p12-----12----------------12-14---|
 B|-------12----14p12----------12----14p12----12-14---------|
 G|-11/13----13-------13-------------------13---------------|
 D|---------------------------------------------------------|
 A|---------------------------------------------------------|
 E|---------------------------------------------------------|
 E|-14p12---14b16--16r14-12--12------------------------------------------------------------|
 B|------------------------------14-12----12--------------------12-------------------------|
 G|------------------------------------13----13--11\9---9-11b13----13r11-9---9------------9|
 D|---------------------------------------------------11-------------------11--11-9---9-11-|
 A|---------------------------------------------------------------------------------11-----|
 E|----------------------------------------------------------------------------------------|
 E|--------------------------9----------9-----------------------------------------|
 B|----------------------------9-12b14----12-9--------------------12--------------|
 G|--11b13r11--9-11v---------------------------12-11-9----9-11b13----13r11-9----9-|
 D|----------------------------------------------------11--------------------11---|
 A|-------------------------------------------------------------------------------|
 E|-------------------------------------------------------------------------------|
 E|------------------------------------------------------------------------------|
 B|--------------------------12--------------------------------------------------|
 G|--------------9-11b13--------13r11-9-----------------9-11b13r11-9---9---------|
 D|-11-9----9-11----------------------------------9-11---------------11--11--99v-|
 A|------11--------------------------------7-9/11--------------------------------|
 E|------------------------------------------------------------------------------|
 E|----------------------------------------------------|
 B|-----------------------12---------------------------|
 G|------9h11--9-11b13------13r11--9----9-9h11--9------|
 D|-9h11-----------------------------11-----------11v--|
 A|----------------------------------------------------|
 E|----------------------------------------------------|

Solo 3
 
 E|----------------------------------------------------------------------------------------|
 B|-----------------------------------------------------------------12---------------------|
 G|-11b13------11b13--11b13-------b13--b13--b13-b13-b13--13r11----------11b13r11--9-11b13--|
 D|----------------------------------------------------------------------------------------|
 A|----------------------------------------------------------------------------------------|
 E|----------------------------------------------------------------------------------------|
 E|-9---------9---------------------------------------------12-1414--14b16r14--12-14-12--|
 B|---9-12b14---12-9-------------------------------12-14---------------------------------|
 G|------------------12-11-9----9-9h11v------11/13---------------------------------------|
 D|--------------------------11----------------------------------------------------------|
 A|--------------------------------------------------------------------------------------|
 E|--------------------------------------------------------------------------------------|
 E|-------------------------------------12-1414---1414---14---14p12----12-14b16-14-14p12-|
 B|-14v---14v---14v---14v---14v---14v-------------------------------14-------------------|
 G|--------------------------------------------------------------------------------------|
 D|--------------------------------------------------------------------------------------|
 A|--------------------------------------------------------------------------------------|
 E|--------------------------------------------------------------------------------------|
 E|-12-----------------------------------------------------------------------------------|
 B|----14-12----12-------------------12--------------------12--------------------12------|
 G|----------13----13--11\9----11b13----13r11-9----9-11b13----13r11-9----9-11b13----11v--|
 D|-------------------------11------------------11--------------------11-----------------|
 A|--------------------------------------------------------------------------------------|
 E|--------------------------------------------------------------------------------------|
 E|--9---------9-----------------------------------------------------------------------|
 B|----9-12b14---12-9------------------------12----------------------------------------|
 G|------------------12-11-9----9----11b13--------13r11---9--------9-------------------|
 D|--------------------------11-------------------------------11------11---9-----------|
 A|----------------------------------------------------------------------------11---9--|
 E|------------------------------------------------------------------------------------|
 E|----------------------|
 B|----------------------|
 G|----------------------|
 D|----------------------|
 A|-7‚??-4--4--4--4‚??-4--4--|
 E|----------------------|

And then join the chorus
Lead Guitar Chords
No Capo
[Am] [C] [G] [Dm] [Am]  
 
 E|--9----7---7---------9----9---|
 B|--9----8---7---------10---9---|
 G|--10---9---8---------11---10--|
 D|--11---9---9---------11---11--|
 A|--11---7---9---------9----11--|
 E|--9--------7--------------9---|

[C] [C] [G] [F] [Am]  
 
 E|--7---7---7----------5---9---|
 B|--8---8---7----------5---9---|
 G|--9---9---8----------6---10--|
 D|--9---9---9----------7---11--|
 A|--7---7---9----------7---11--|
 E|----------7----------5---9---| 


Important: The song above is NOT stored on the Chordie server. The original song is hosted at www.azchords.com. Chordie works as a search engine and provides on-the-fly formatting. Chordie does not index songs against artists'/composers' will. To remove this song please click here.

Text color:
Chord color:
Chord grids: 
Font size:    
Page size: 

Am C Dm F G
Rate #1 of 1 versions

Login - add to songbook

SHARE PAGE  



You need to log in to post comments