Guitar Tabs, Chords and Lyrics
Major upgrade!! After one year development the new version of Chordie is now online! Please give feedback.


Laces Out, Dan!   The Fall of Troy

 
 E-----------------------------------------------------------------|
 B----------------------------------------------------8-----10-----|
 G----------------------------------------------9------------------|
 D----------------------------------------8------------------------|
 A-----------------------------------7-----------------------------|
 E-0-0-0-0-0-0-0-0-0-0-0-0-0-0-0-0-0---0-0--0-0---0-0---0-0----0-0-|

 


 PM................................. ... ... ... ... ...


 


 

 
 E---------------------------------------------------------|
 B---------------------------------------------------------|
 G-9-9-9-9-9-9-9-9-9-9-9-9-9-9-9-9-21-21-21-21-21-21-21-21-|
 D-8-8-8-8-8-8-8-8-8-8-8-8-8-8-8-8-20-20-20-20-20-20-20-20-|
 A-7-7-7-7-7-7-7-7-7-7-7-7-7-7-7-7-19-19-19-19-19-19-19-19-|
 E---------------------------------------------------------|
 E-----------------------------------------------------------------------|
 B-----------------------------------------------------------------------|
 G-------3-4---------------------3-4-3-4-------3-4---7-7-7-7-10-10-10-10-|
 D-5--2--3-4-2-5--2--------------3-4-3-4-5--2--3-4-2-6-6-6-6-9--9--9--9--|
 A-5--2--1-2-2-5--2--------------1-2-1-2-5--2--1-2-2-5-5-5-5-8--8--8--8--|
 E-3--0------0-3--0--0-0-0-0--0----------3--0------0---------------------|

 


 PM ..........


 


 

 
 E----------------------------------------------------------------------------|
 B----------------------------------------------------------------------------|
 G-------3-4--------------3-4-3-4-------3-4---7-7-7-7-10-10-10-10-13-13-13-13-|
 D-5--2--3-4-2-5--2--[3]--3-4-3-4-5--2--3-4-2-6-6-6-6-9--9--9--9--12-12-12-12-|
 A-5--2--1-2-2-5--2-------1-2-1-2-5--2--1-2-2-5-5-5-5-8--8--8--8--11-11-11-11-|
 E-3--0------0-3--0---------------3--0------0---------------------------------|
 E----------------------------------------------------------------|
 B----------------------------------------------------------------|
 G-4-4-4-4P0-0H4P0--4-4-7P0-0H9P0--4-4-4-4P0-0H4P0--4-4-4P0-------|
 D-4-4-4------------4-4------------4-4-4------------4-4-----4P2P0-|
 A-2-2-2------------2-2------------2-2-2------------2-2-----------|
 E----------------------------------------------------------------|
 E----------------------------------------------------------------|
 B----------------------------------------------------------------|
 G-4-4-4-4P0-0H4P0--4-4-7P0-0H9P0--4-4-4-4P0-0H4P0--4-4-4P0-------|
 D-4-4-4------------4-4------------4-4-4------------4-4-----4P2P0-|
 A-2-2-2------------2-2------------2-2-2------------2-2-----------|
 E----------------------------------------------------------------|
 E---------------------------------------------------------------------|
 B---------------------------------------------------------------------|
 G-4-4-4-4P0-0H4P0--4-4-7P0-0H9P0--4-4-4-4P0-0H4P0-3P0-0H3P0-5P0-0H5P0-|
 D-4-4-4------------4-4------------4-4-4-------------------------------|
 A-2-2-2------------2-2------------2-2-2-------------------------------|
 E---------------------------------------------------------------------|
 E---------------------------------------------------------------------------------|
 B-12P0-12P0-15P0-15P0-12P0-12P0-15P0-17P0-12P0-12P0-20P0-19P0-22P0-20P0-24P0-22P0-|
 G---------------------------------------------------------------------------------|
 D---------------------------------------------------------------------------------|
 A---------------------------------------------------------------------------------|
 E---------------------------------------------------------------------------------|
 E-------------------------------------------------------------------------|
 B-12P0-12P0-15P0-15P0-12P0-12P0-15P0-17P0-12P0-12P0-15P0-15P0-------------|
 G-------------------------------------------------------------------------|
 D-------------------------------------------------------------5-5-5-5-5-5-|
 A-------------------------------------------------------------5-5-5-5-5-5-|
 E-------------------------------------------------------------3-3-3-3-3-3-|
 E----------------------------------------------------------------|
 B----------------------------------------------------------------|
 G-------3-4--------------3-4-3-4-------3-4---7-7-7-7-10-10-10-10-|
 D-5--2--3-4-2-5--2--[3]--3-4-3-4-5--2--3-4-2-6-6-6-6-9--9--9--9--|
 A-5--2--1-2-2-5--2-------1-2-1-2-5--2--1-2-2-5-5-5-5-8--8--8--8--|
 E-3--0------0-3--0---------------3--0------0---------------------|
 E-----------------------------------------------------------------------------------|
 B-----------------------------------------------------------------------------------|
 G-------3-4---------------------3-4-3-4-------3-4---7-7-7-7-10-10-10-10-13-13-13-13-|
 D-5--2--3-4-2-5--2--------------3-4-3-4-5--2--3-4-2-6-6-6-6-9--9--9--9--12-12-12-12-|
 A-5--2--1-2-2-5--2--------------1-2-1-2-5--2--1-2-2-5-5-5-5-8--8--8--8--11-11-11-11-|
 E-3--0------0-3--0--0-0-0-0--0----------3--0------0---------------------------------|

 


 PM ..........


 


 

 
 E----------------------------------------------------------------|
 B----------------------------------------------------------------|
 G-4-4-4-4P0-0H4P0--4-4-7P0-0H9P0--4-4-4-4P0-0H4P0--4-4-4P0-------|
 D-4-4-4------------4-4------------4-4-4------------4-4-----4P2P0-|
 A-2-2-2------------2-2------------2-2-2------------2-2-----------|
 E----------------------------------------------------------------|
 E---------------------------------------------------------------------|
 B---------------------------------------------------------------------|
 G-4-4-4-4P0-0H4P0--4-4-7P0-0H9P0--4-4-4-4P0-0H4P0-3P0-0H3P0-5P0-0H5P0-|
 D-4-4-4------------4-4------------4-4-4-------------------------------|
 A-2-2-2------------2-2------------2-2-2-------------------------------|
 E---------------------------------------------------------------------|
 E---------------------------------------------------------------------------------|
 B-12P0-12P0-15P0-15P0-12P0-12P0-15P0-17P0-12P0-12P0-20P0-19P0-22P0-20P0-24P0-22P0-|
 G---------------------------------------------------------------------------------|
 D---------------------------------------------------------------------------------|
 A---------------------------------------------------------------------------------|
 E---------------------------------------------------------------------------------|
 E-------------------------------------------------------------------------|
 B-12P0-12P0-15P0-15P0-12P0-12P0-15P0-17P0-12P0-12P0-15P0-15P0-------------|
 G-------------------------------------------------------------------------|
 D-------------------------------------------------------------5-5-5-5-5-5-|
 A-------------------------------------------------------------5-5-5-5-5-5-|
 E-------------------------------------------------------------3-3-3-3-3-3-|
 E-----------------------------------------------------------------------|
 B-----------------------------------------------------------------------|
 G-------------6--------------6------------------6/9--6/3--6/9--6/3--6/9-|
 D-------------5--------------5------------------5/8--5/2--5/8--5/2--5/8-|
 A-------------4--------------4------------------4/7--4/1--4/7--4/1--4/7-|
 E-0-0-0-0--0-----0-0-0-0--0-----0-0-0-0-0-0-0-0-------------------------|
 E------------------------------------------------------------------------X--X--|
 B------------------------------------------------------------------------11-11-|
 G-------------6--------------6------------------6/9--6/3--6/9--6/3--6/9--10-10-|
 D-------------5--------------5------------------5/8--5/2--5/8--5/2--5/8--X--X--|
 A-------------4--------------4------------------4/7--4/1--4/7--4/1--4/7--X--X--|
 E-0-0-0-0--0-----0-0-0-0--0-----0-0-0-0-0-0-0-0--------------------------X--X--|
 E------------------------------------------------------------------------X--X--|
 B------------------------------------------------------------------------11-11-|
 G-------------6--------------6------------------6/9--6/3--6/9--6/3--6/9--10-10-|
 D-------------5--------------5------------------5/8--5/2--5/8--5/2--5/8--X--X--|
 A-------------4--------------4------------------4/7--4/1--4/7--4/1--4/7--X--X--|
 E-0-0-0-0--0-----0-0-0-0--0-----0-0-0-0-0-0-0-0--------------------------X--X--|
 E------------------------------------------------------------------------X--X--|
 B------------------------------------------------------------------------11-11-|
 G-------------6--------------6------------------6/9--6/3--6/9--6/3--6/9--10-10-|
 D-------------5--------------5------------------5/8--5/2--5/8--5/2--5/8--X--X--|
 A-------------4--------------4------------------4/7--4/1--4/7--4/1--4/7--X--X--|
 E-0-0-0-0--0-----0-0-0-0--0-----0-0-0-0-0-0-0-0--------------------------X--X--|
 E-----------------------------------------------------------------------------X--X--X--X--|
 B-----------------------------------------------------------------------------11-11-11-11-|
 G-------------6--------------6------------------6/9--6/3--6/9--6/3--6/9--6/3--10-10-10-10-|
 D-------------5--------------5------------------5/8--5/2--5/8--5/2--5/8--5/2--X--X--X--X--|
 A-------------4--------------4------------------4/7--4/1--4/7--4/1--4/7--4/1--X--X--X--X--|
 E-0-0-0-0--0-----0-0-0-0--0-----0-0-0-0-0-0-0-0-------------------------------X--X--X--X--|
 E--------------------------------------------------------------|
 B--------------------------------------------------------------|
 G-6-6-6-6P0H3P0H3P0--11-11-X-X-------X-X-------X-X-5-5-6-6-----|
 D-X-X-X-X------------X--X--X-X-11-11-X-X-12-12-X-X-X-X-X-X-8-8-|
 A-4-4-4-4------------9--9--X-X-x-----X-X-x--x--X-X-3-3-4-4-X-X-|
 E--------------------------X-X-9--9--X-X-10-10-X-X---------6-6-|
 E----------------------------------------------------------------------|
 B----------------------------------------------------------------------|
 G-6-6-6-6P0H3P0H3P0--11-11-X-X-------X-X-------X-X-11/14--14-14--14-14-|
 D-X-X-X-X------------X--X--X-X-11-11-X-X-12-12-X-X-X--X---X--X---X--X--|
 A-4-4-4-4------------9--9--X-X-x--x--X-X-x--x--X-X-9-/12--12-12--12-12-|
 E--------------------------X-X-9--9--X-X-10-10-X-X---------------------|
 E--------------------------------------------------------------|
 B--------------------------------------------------------------|
 G-6-6-6-6P0H3P0H3P0--11-11-X-X-------X-X-------X-X-5-5-6-6-----|
 D-X-X-X-X------------X--X--X-X-11-11-X-X-12-12-X-X-X-X-X-X-8-8-|
 A-4-4-4-4------------9--9--X-X-x--x--X-X-x--x--X-X-3-3-4-4-X-X-|
 E--------------------------X-X-9--9--X-X-10-10-X-X---------6-6-|
 E----------------------------------------------------------------------|
 B----------------------------------------------------------------------|
 G-6-6-6-6P0H3P0H3P0--11-11-X-X-------X-X-------X-X-11/14--14-14--14-14-|
 D-X-X-X-X------------X--X--X-X-11-11-X-X-12-12-X-X-X--X---X--X---X--X--|
 A-4-4-4-4------------9--9--X-X-x--x--X-X-x--x--X-X-9-/12--12-12--12-12-|
 E--------------------------X-X-9--9--X-X-10-10-X-X---------------------|
 E----------------------------------------------------------------|
 B-7-8-9-10-8-9-10-11-9-10-11-12-10-11-12-13-11-12-13-14----------|
 G----------------------------------------------------------------|
 D----------------------------------------------------------------|
 A----------------------------------------------------------------|
 E----------------------------------------------------------------|
 E------------------------------------|
 B------------------------------------|
 G------------------------------------|
 D-12--16--16--12--16--16--12--16--16-|
 A-11--15--15--11--15--15--11--15--15-|
 E-10--14--14--10--14--14--10--14--14-|
 E-------------------------------|
 B-7-8-9-10-8-9-10-11-9-10-11-12-|
 G-------------------------------|
 D-------------------------------|
 A-------------------------------|
 E-------------------------------|
 E------------------------------------|
 B------------------------------------|
 G------------------------------------|
 D-12--16--16--12--16--16--12--16--16-|
 A-11--15--15--11--15--15--11--15--15-|
 E-10--14--14--10--14--14--10--14--14-|
 E----------------------------------------------------------------|
 B-7-8-9-10-8-9-10-11-9-10-11-12-10-11-12-13-11-12-13-14----------|
 G----------------------------------------------------------------|
 D----------------------------------------------------------------|
 A----------------------------------------------------------------|
 E----------------------------------------------------------------|
 E------------------------------------|
 B------------------------------------|
 G------------------------------------|
 D-12--16--16--12--16--16--12--16--16-|
 A-11--15--15--11--15--15--11--15--15-|
 E-10--14--14--10--14--14--10--14--14-|
 E-------------------------------|
 B-7-8-9-10-8-9-10-11-9-10-11-12-|
 G-------------------------------|
 D-------------------------------|
 A-------------------------------|
 E-------------------------------|
 E------------------------------------|
 B------------------------------------|
 G------------------------------------|
 D-12--16--16--12--16--16--12--16--16-|
 A-11--15--15--11--15--15--11--15--15-|
 E-10--14--14--10--14--14--10--14--14-|
 E-------------------------------|
 B-------------------------------|
 G-------------------3-4---------|
 D-5-5-5-5-5-5-5--2--3-4-2-5--2--|
 A-5-5-5-5-5-5-5--2--1-2-2-5--2--|
 E-3-3-3-3-3-3-3--0------0-3--0--|


Important: The song above is NOT stored on the Chordie server. The original song is hosted at www.azchords.com. Chordie works as a search engine and provides on-the-fly formatting. Chordie does not index songs against artists'/composers' will. To remove this song please click here.

This song is displayed as text-only. Transposing and tuning is only available for chordpro-songs.
Rate #2 of 2 versions

Login - add to songbook

SHARE PAGE  




You need to log in to post comments