Guitar Tabs, Chords and Lyrics
Server problems seems to be fixed. Chordie has been experiencing problems with songs disappearing. These issues now seems to be fixed, but still verifying the fix. If you find anything strange, please email admin@chordie.com.


Sledgehammer  The Fall of Troy

The Fall of Troy
"Sledgehammer"
From: Manipulator (2007)
PM PM PM PM PM PM PM PM PM
S E S E E E E S S S S E E E E
 
 E||-----------------0--0------|------------------0--0------|
 B||-----------------9--9p--0--|------------------9--9p--0--|
 G||*----------------9--9------|------------------9--9------|
 D||*--11-11--11-11------------|--11-11-11-11-11------------|
 A||---11-11--11-11------------|--11-11-11-11-11------------|
 D||---11-11--11-11------------|--11-11-11-11-11------------|

PM PM PM PM PM PM PM PM
S S S S S S S S S E S E E E E S S S S
 
 ----------9-11-12-9-9-|----------------0--0------------------|
 --9-11-12-------------|----------------9--9p--0--------------|
 ----------------------|----------------9--9------------------|
 ----------------------|--11-11--11-11------------11-11-11-11-|
 ----------------------|--11-11--11-11------------11-11-11-11-|
 ----------------------|--11-11--11-11------------11-11-11-11-|

PM PM PM PM PM PM PM PM
E E E E E E E E S E S E E E E
 
 ----------------------------|--------------0--0------|
 --9------8------7-----6-----|--------------5--5------|
 --9------8------7-----6-----|--------------5--5p--0--|
 -----11-----10-----9-----8--|--7--7--7--7------------|
 -----11-----10-----9-----8--|--7--7--7--7------------|
 -----11-----10-----9-----8--|--7--7--7--7------------|

PM PM PM PM PM T T
S S S S E E E E S S S S S S S S
 
 -----------------0--0------|--12p-0h-8----------15p-(0)-|
 -----------------5--5------|-----------12p-0h-5---------|
 -----------------5--5p--0--|----------------------------|
 --7--7--7--7--7------------|----------------------------|
 --7--7--7--7--7------------|----------------------------|
 --7--7--7--7--7------------|----------------------------|

PM PM PM PM PM PM PM PM PM PM PM
S E S E E E E S S S S E E E E E E E E
 
 -------------0--0------------------|----------------------------||
 -------------5--5------------------|--5-----6-----7-----8-------||
 -------------5--5p--0--------------|--5-----6-----7-----8------*||
 --7-7--7--7------------7--7--7--7--|-----7-----8-----9-----10--*||
 --7-7--7--7------------7--7--7--7--|-----7-----8-----9-----10---||
 --7-7--7--7------------7--7--7--7--|-----7-----8-----9-----10---||
 |-3-| |-3-| |-3-| |-3-| 

E E E E E S. S. S S S S. S. T T T T T T T T T T T T T T
 
 -----------------|------------------------------2-3-5-2-----------|
 --5-----4-----3--|------------------------2-3-5---------5-3-2-----|
 --5-----4-----3--|--------2-4-2-------2-4---------------------4-2-|
 -----7-----6-----|--4--4--2-4-2-0--0------------------------------|
 -----7-----6-----|--4--4--------0--0------------------------------|
 -----7-----6-----|--4--4--------0--0------------------------------|
 |-3-| |-3-| |-3-| |-3-| 

S. S. S S S S. S. T T S. S.S S. S. S S S S. S. T T T T T T T T T T T T T T
 
 --------------------------------|------------------------------2-3-5-2-----------|
 --------------------------------|------------------------2-3-5---------5-3-2-----|
 --------2-4-2-7--7------11-11---|--------2-4-2-------2-4---------------------4-2-|
 --4--4--2-4-2-7--7--x-x-11-11---|--4--4--2-4-2-0--0------------------------------|
 --4--4--------5--5--x-x--9--9---|--4--4--------0--0------------------------------|
 --4--4--------5--5--x-x--9--9---|--4--4--------0--0------------------------------|

S. S. S S S S. S. T T S. S. E
 
 ------------------------------------|
 ------------------------------------|
 --------2-4-2-7--7------11-11-------|
 --4--4--2-4-2-7--7--x-x-11-11-------|
 --4--4--------5--5--x-x--9--9-------|
 --4--4--------5--5--x-x--9--9-/14\--|
 |-3-| |-3-| |-3-| |-3-| 

S. S. S S S S. S. T T T T T T T T T T T T T T
 
 |-------------------------------2-3-5-2-----------|
 |-------------------------2-3-5---------5-3-2-----|
 |*--------2-4-2-------2-4---------------------4-2-|
 |*--4--4--2-4-2-0--0------------------------------|
 |---4--4--------0--0------------------------------|
 |---4--4--------0--0------------------------------|

S. S. S S S S. S. T T S. S.S S. S. S S S S. S. T T S. S.T T S. S.T T
 
 ---------------------------------||--------------------------------------------|
 ---------------------------------||--------------------------------------------|
 --------2-4-2-7--7------11-11---*||--------2-4-2-7--7------11-11-----14-14-----|
 --4--4--2-4-2-7--7--x-x-11-11---*||--4--4--2-4-2-7--7--x-x-11-11-x-x-14-14-x-x-|
 --4--4--------5--5--x-x--9--9----||--4--4--------5--5--x-x--9--9-x-x-12-12-x-x-|
 --4--4--------5--5--x-x--9--9----||--4--4--------5--5--x-x--9--9-x-x-12-12-x-x-|

NH
W E E E E E E E E E E Q E E Q
 
 --*7-----------------||---------------------------|------------------------|
 --*7-----------------||---------------------------|------------------------|
 --*7-----------------||*--------------------------|------------------------|
 ---------------------||*--8--8--8--8--8--8--8--8--|--------5----------5----|
 ---------------------||---8--8--8--8--8--8--8--8--|--0--0--5----0--0--5----|
 ---------------------||---8--8--8--8--8--8--8--8--|--0--0--5----0--0--5----|

E E E E E E E E E E Q. E Q Q Q E E E E
 
 --------------------------|-----------------------|------------------------|
 --------------------------|-----------------------|------------------------|
 --------------------------|-----------------------|------------------------|
 --8--8--8--8--8--8--8--8--|--5--5--4---------4----|-------4----4--4--4--4--|
 --8--8--8--8--8--8--8--8--|--5--5--4---------4----|-------4----4--4--4--4--|
 --8--8--8--8--8--8--8--8--|--5--5--4---------4----|-------4----4--4--4--4--|

[E] [E] [E] [E] [E] [E] [E] [E] [E] [E] [E] [E] [E] [E] [E] [E]  
 
 ----------------------------------|--------------------------|
 ----------------------------------|--------------------------|
 --11--11--11--11--11--11--11--11--|--5--5--5--5--5--5--5--5--|
 --11--11--11--11--11--11--11--11--|--5--5--5--5--5--5--5--5--|
 ---9---9---9---9---9---9---9---9--|--3--3--3--3--3--3--3--3--|
 ----------------------------------|--------------------------|

[E] [E] [E] [E] [E] [E] [E] [E] [E] [E] [E] [E] [E] [E] [E] [E]  
 
 --------------------------|------------3p--0------------|
 --------------------------|--5p--0------------3---------|
 --------------------------|---------0------------4p--3--|
 --4--4--4--4--4--4--4--4--|-----------------------------|
 --4--4--4--4--4--4--4--4--|-----------------------------|
 --4--4--4--4--4--4--4--4--|-----------------------------|

E E E E E E E E Q Q Q Q
 
 ------------3p--0------------|--------------------------|
 --5p--0------------3---------|--12----12----12----12----|
 ---------0------------4p--3--|---x-----x-----x-----x----|
 -----------------------------|--10----10----10----10----|
 -----------------------------|--12----12----12----12----|
 -----------------------------|--------------------------|
 |---3---| |---3---| 

[E] [E] [E] [E] [E] [E] [E] [E] [E] [E] [E] [E] [E] [E] [E] [E] [E] [E]  
 
 -----------------------------------------||-------------3p--0------------|
 -----------------------------------------||---5p--0------------3---------|
 ---x---x---x---x------x---x---x---x-----*||*---------0------------4p--3--|
 ---x---x---x---x------x---x---x---x-----*||*-----------------------------|
 ---x---x---x---x------x---x---x---x------||------------------------------|
 ---x---x---x---x------x---x---x---x------||------------------------------|

[E] [E] [E] [E] [E] [E] [E] [E] [E] [E] [E] [E] [E] [E] [E] [E]  
 
 ------------3p--0------------|------------3p--0------------|
 --5p--0------------3---------|--5p--0------------3---------|
 ---------0------------4p--3--|---------0------------4p--3--|
 -----------------------------|-----------------------------|
 -----------------------------|-----------------------------|
 -----------------------------|-----------------------------|

Q Q Q Q E E E E E E E E
 
 ---------------------------||----------------15p--12---------------|
 --12----12----12----12-----||---17p--12---------------15-----------|
 ---x-----x-----x-----x----*||*-----------12---------------16p--15--|
 --10----10----10----10----*||*-------------------------------------|
 --12----12----12----12-----||--------------------------------------|
 ---------------------------||--------------------------------------|

[E] [E] [E] [E] [E] [E] [E] [E] [E] [E] [E] [E] [E] [E] [E] [E]  
 
 ---------------15p--12---------------|---------------15p--12---------------|
 --17p--12---------------15-----------|--17p--12---------------15-----------|
 -----------12---------------16p--15--|-----------12---------------16p--15--|
 -------------------------------------|-------------------------------------|
 -------------------------------------|-------------------------------------|
 -------------------------------------|-------------------------------------|
 |---3---| |---3---| 

Q Q Q Q E E E E E E E E E E
 
 ---------------------------||----------------------------------------|
 --12----12----12----12-----||----------------------------------------|
 ---x-----x-----x-----x----*||---x---x---x---x------x---x---x---x-----|
 --10----10----10----10----*||---x---x---x---x------x---x---x---x-----|
 --12----12----12----12-----||---x---x---x---x------x---x---x---x-----|
 ---------------------------||---x---x---x---x------x---x---x---x-----|

NH
 
 |---3---| 

E E E E E Q E E E E E E E E E E
 
 ----------------------------------||--------------------------------|
 ---------------------*5- ---------||--------------------------------|
 ---x---x---x---x-----*5-- --------||*--------10p--0--10h--12--------|
 ---x---x---x---x------------5--8--||*--L----------------------5--8--|
 ---x---x---x---x------------5--8--||---L--0-------------------5--8--|
 ---x---x---x---x------------5--8--||---L--0-------------------5--8--|

[E] [E] [E] [E] [E] [E] [E] [E] [E] [E] [E] [E] [E] [E] [E] [E]  
 
 -------------------------------|-------------------------------|
 -------------------------------|-------------------------------|
 --------10p--0--10h--12--------|--------10p--0--10h--12--------|
 --L----------------------5--8--|--L----------------------3--5--|
 --L--0-------------------5--8--|--L--0-------------------3--5--|
 --L--0-------------------5--8--|--L--0-------------------3--5--|

[E] [E] [E] [E] [E] [E] [E] [E] [E] [E] [E] [E] [E] [E] [E] [E]  
 
 ---------------------------||-------------------------------|
 ---------------------------||---------7-------7-------------|
 --------------------------*||--------10p--0--10h--12--------|
 --L-----3--5--L-----5--8--*||--L----------------------5--8--|
 --L--0--3--5--L--0--5--8---||--L--0-------------------5--8--|
 --L--0--3--5--L--0--5--8---||--L--0-------------------5--8--|

[E] [E] [E] [E] [E] [E] [E] [E] [E] [E] [E] [E] [E] [E] [E] [E]  
 
 -------------------------------|-------------------------------|
 ---------7-------7-------------|---------7-------7-------------|
 --------10p--0--10h--12--------|--------10p--0--10h--12--------|
 --L----------------------5--8--|--L----------------------3--5--|
 --L--0-------------------5--8--|--L--0-------------------3--5--|
 --L--0-------------------5--8--|--L--0-------------------3--5--|

[E] [E] [E] [E] [E] [E] [E] [E] [E] [E] [E] [E] [E] [E] [E] [E]  
 
 --------------------------|-------------------------------|
 --------------------------|---------7-------7-------------|
 --------------------------|--------10p--0--10h--12--------|
 --L-----3--5--L-----5--8--|--L----------------------5--8--|
 --L--0--3--5--L--0--5--8--|--L--0-------------------5--8--|
 --L--0--3--5--L--0--5--8--|--L--0-------------------5--8--|

[E] [E] [E] [E] [E] [E] [E] [E] [E] [E] [E] [E] [E] [E] [E] [E]  
 
 -------------------------------|-------------------------------|
 ---------7-------7-------------|---------7-------7-------------|
 --------10p--0--10h--12--------|--------10p--0--10h--12--------|
 --L----------------------5--8--|--L----------------------3--5--|
 --L--0-------------------5--8--|--L--0-------------------3--5--|
 --L--0-------------------5--8--|--L--0-------------------3--5--|

[E] [E] [E] [E] [E] [E] [E] [E] [E] [E] [E] [E] [E] [E] [E] [E]  
 
 --------------------------|--------------------------|
 --------------------------|--------------------------|
 --------------------------|--------------------------|
 --L-----3--5--L-----3--5--|--L-----3--5--L-----3--5--|
 --L--0--3--5--L--0--3--5--|--L--0--3--5--L--0--3--5--|
 --L--0--3--5--L--0--3--5--|--L--0--3--5--L--0--3--5--|

PM PM PM PM PM
E E S S S S S S Q E Q. E Q. E
 
 ----------------------------------|----------------------|
 -----------------------x-6\-------|----------------------|
 -----------------------x-9\-------|----------------------|
 --L----------------------------3--|--5------3--5------3--|
 --L--0-------------------------3--|--5------3--5------3--|
 --L--0--8--8--8--8--8----------3--|--5------3--5------3--|

PM PM PM PM PM PM PM
 
 |--3--| |--3--| 

E E E E E E E Q E Q. E Q. E
 
 -------------------------------|----------------------|
 -------------------------------|----------------------|
 -------------------------------|----------------------|
 -----------------------1----3--|--5------3--5------3--|
 --8--8--5--6--6--3--5--1----3--|--5------3--5------3--|
 --8--8--5--6--6--3--5--1----3--|--5------3--5------3--|

PM PM PM PM PM
E E S S S S S S Q E Q. E Q. E
 
 ----------------------------------||-----------------------|
 -----------------------x-6\-------||-----------------------|
 -----------------------x-9\-------||*----------------------|
 --5----------------------------3--||*--5------3--5------3--|
 --5--0-------------------------3--||---5------3--5------3--|
 --5--0--8--8--8--8--8----------3--||---5------3--5------3--|

PM PM PM PM PM PM PM
 
 |--3--| |--3--| 

E E E E E E E Q E Q. E Q. E
 
 -------------------------------|----------------------|
 -------------------------------|----------------------|
 -------------------------------|----------------------|
 -----------------------1----3--|--5------3--5------3--|
 --8--8--5--6--6--3--5--1----3--|--5------3--5------3--|
 --8--8--5--6--6--3--5--1----3--|--5------3--5------3--|

PM PM PM PM PM
E E S S S S S S Q E Q. E Q. E
 
 -----------------------------------||----------------------|
 -----------------------x-6\--------||----------------------|
 -----------------------x-9\-------*||----------------------|
 --5----------------------------3--*||--5------3--5------3--|
 --5--0-------------------------3---||--5------3--5------3--|
 --5--0--8--8--8--8--8----------3---||--5------3--5------3--|

PM PM PM PM PM PM PM
 
 |--3--| |--3--| 

E E E E E E E Q. W H Q
 
 ------------------------------|-------------------|-------------------|
 ------------------------------|-------------------|-------------------|
 ------------------------------|-------------------|-------------------|
 -----------------------1------|--L----------------|--L--------/16\----|
 --8--8--5--6--6--3--5--1------|--L----------------|--L--------/16\----|
 --8--8--5--6--6--3--5--1------|--L----------------|--L--------/16\----|
 |-3-| |-3-| |-3-| |-3-| 

S. S. S S S S. S. T T T T T T T T T T T T T T
 
 ------------------------------2-3-5-2-----------|
 ------------------------2-3-5---------5-3-2-----|
 --------2-4-2-------2-4---------------------4-2-|
 --4--4--2-4-2-0--0------------------------------|
 --4--4--------0--0------------------------------|
 --4--4--------0--0------------------------------|

S. S. S S S S. S. T T S. S.S
 
 --------------------------------|
 --------------------------------|
 --------2-4-2-7--7------11-11---|
 --4--4--2-4-2-7--7--x-x-11-11---|
 --4--4--------5--5--x-x--9--9---|
 --4--4--------5--5--x-x--9--9---|
 |-3-| |-3-| |-3-| |-3-| 

S. S. S S S S. S. T T T T T T T T T T T T T T
 
 ------------------------------2-3-5-2-----------|
 ------------------------2-3-5---------5-3-2-----|
 --------2-4-2-------2-4---------------------4-2-|
 --4--4--2-4-2-0--0------------------------------|
 --4--4--------0--0------------------------------|
 --4--4--------0--0------------------------------|

NH NH NH
S. S. S S S S. S. T T S. S. X X E T
 
 --------------------------------*5-----------|
 -----------------------------------*5--------|
 --------2-4-2-7--7------11-11----------*5----|
 --4--4--2-4-2-7--7--x-x-11-11----------------|
 --4--4--------5--5--x-x--9--9----------------|
 --4--4--------5--5--x-x--9--9----------------|
 |-3-| |-3-| |-3-| |-3-| 

S. S. S S S S. S. T T T T T T T T T T T T T T
 
 |-------------------------------2-3-5-2-----------|
 |-------------------------2-3-5---------5-3-2-----|
 |*--------2-4-2-------2-4---------------------4-2-|
 |*--4--4--2-4-2-0--0------------------------------|
 |---4--4--------0--0------------------------------|
 |---4--4--------0--0------------------------------|

S. S. S S S S. S. T T S. S.S S. S. S S S S. S. T T S. S.T T S. S.T T
 
 ---------------------------------||--------------------------------------------|
 ---------------------------------||--------------------------------------------|
 --------2-4-2-7--7------11-11---*||--------2-4-2-7--7------11-11-----14-14-----|
 --4--4--2-4-2-7--7--x-x-11-11---*||--4--4--2-4-2-7--7--x-x-11-11-x-x-14-14-x-x-|
 --4--4--------5--5--x-x--9--9----||--4--4--------5--5--x-x--9--9-x-x-12-12-x-x-|
 --4--4--------5--5--x-x--9--9----||--4--4--------5--5--x-x--9--9-x-x-12-12-x-x-|

NH
W
 
 ---*3----------------|
 ---*3----------------|
 ---*3----------------|
 ---------------------|
 ---------------------|
 ---------------------|

E E E E E E E E E E Q E E Q
 
 |---------------------------|------------------------|
 |---------------------------|------------------------|
 |*--------------------------|------------------------|
 |*--8--8--8--8--8--8--8--8--|--------5----------5----|
 |---8--8--8--8--8--8--8--8--|--0--0--5----0--0--5----|
 |---8--8--8--8--8--8--8--8--|--0--0--5----0--0--5----|

E E E E E E E E E E Q. E Q Q Q E E E E
 
 --------------------------|-----------------------|------------------------|
 --------------------------|-----------------------|------------------------|
 --------------------------|-----------------------|------------------------|
 --8--8--8--8--8--8--8--8--|--5--5--4---------4----|-------4----4--4--4--4--|
 --8--8--8--8--8--8--8--8--|--5--5--4---------4----|-------4----4--4--4--4--|
 --8--8--8--8--8--8--8--8--|--5--5--4---------4----|-------4----4--4--4--4--|

[E] [E] [E] [E] [E] [E] [E] [E] [E] [E] [E] [E] [E] [E] [E] [E]  
 
 ----------------------------------|--------------------------|
 ----------------------------------|--------------------------|
 --11--11--11--11--11--11--11--11--|--5--5--5--5--5--5--5--5--|
 --11--11--11--11--11--11--11--11--|--5--5--5--5--5--5--5--5--|
 ---9---9---9---9---9---9---9---9--|--3--3--3--3--3--3--3--3--|
 ----------------------------------|--------------------------|

[E] [E] [E] [E] [E] [E] [E] [E] [E] [E] [E] [E] [E] [E] [E] [E]  
 
 --------------------------|------------3p--0------------|
 --------------------------|--5p--0------------3---------|
 --------------------------|---------0------------4p--3--|
 --4--4--4--4--4--4--4--4--|-----------------------------|
 --4--4--4--4--4--4--4--4--|-----------------------------|
 --4--4--4--4--4--4--4--4--|-----------------------------|

E E E E E E E E Q Q Q Q
 
 ------------3p--0------------|--------------------------|
 --5p--0------------3---------|--12----12----12----12----|
 ---------0------------4p--3--|---x-----x-----x-----x----|
 -----------------------------|--10----10----10----10----|
 -----------------------------|--12----12----12----12----|
 -----------------------------|--------------------------|
 |---3---| |---3---| 

[E] [E] [E] [E] [E] [E] [E] [E] [E] [E] [E] [E] [E] [E] [E] [E] [E] [E]  
 
 -----------------------------------------||-------------3p--0------------|
 -----------------------------------------||---5p--0------------3---------|
 ---x---x---x---x------x---x---x---x-----*||*---------0------------4p--3--|
 ---x---x---x---x------x---x---x---x-----*||*-----------------------------|
 ---x---x---x---x------x---x---x---x------||------------------------------|
 ---x---x---x---x------x---x---x---x------||------------------------------|

[E] [E] [E] [E] [E] [E] [E] [E] [E] [E] [E] [E] [E] [E] [E] [E] 
 
 ------------3p--0------------|------------3p--0------------|
 --5p--0------------3---------|--5p--0------------3---------|
 ---------0------------4p--3--|---------0------------4p--3--|
 -----------------------------|-----------------------------|
 -----------------------------|-----------------------------|
 -----------------------------|-----------------------------|

Q Q Q Q E E E E E E E E
 
 ---------------------------||----------------15p--12---------------|
 --12----12----12----12-----||---17p--12---------------15-----------|
 ---x-----x-----x-----x----*||*-----------12---------------16p--15--|
 --10----10----10----10----*||*-------------------------------------|
 --12----12----12----12-----||--------------------------------------|
 ---------------------------||--------------------------------------|

[E] [E] [E] [E] [E] [E] [E] [E] [E] [E] [E] [E] [E] [E] [E] [E]  
 
 ---------------15p--12---------------|---------------15p--12---------------|
 --17p--12---------------15-----------|--17p--12---------------15-----------|
 -----------12---------------16p--15--|-----------12---------------16p--15--|
 -------------------------------------|-------------------------------------|
 -------------------------------------|-------------------------------------|
 -------------------------------------|-------------------------------------|

Q Q Q Q W W
 
 ---------------------------||-------------------|-------------------|
 --12----12----12----12-----||-------------------|-------------------|
 ---x-----x-----x-----x----*||-------------------|-------------------|
 --10----10----10----10----*||--1----------------|--L----------------|
 --12----12----12----12-----||--1----------------|--L----------------|
 ---------------------------||--1----------------|--L----------------|

W E Q E E E E E
 
 -------------------||--------------13----------13--|
 -------------------||------------------11----------|
 -------------------||*---------------------14------|
 --L----------------||*--0--0-----------------------|
 --L----------------||---0--0-----------------------|
 --L----------------||---0--0-----------------------|

E E Q E E E E E E E E E E E E
 
 ---L------------13----------13--|--------------11----------11--|
 ------11------------11----------|------------------11----------|
 ----------14------------14------|----------------------14------|
 --------------------------------|--0--0--0---------------------|
 --------------------------------|--0--0--0---------------------|
 --------------------------------|--0--0--0---------------------|

E E E E E E E E E Q E E E E E
 
 ---L----------15----------15-------||--------------13----------13--|
 ------11----------11----------11---||------------------11----------|
 ----------14----------14----------*||*---------------------14------|
 ----------------------------------*||*--0--0-----------------------|
 -----------------------------------||---0--0-----------------------|
 -----------------------------------||---0--0-----------------------|

E E Q E E E E S S S S E E E E E E
 
 ---L------------13----------13--|---------------------11----------11--|
 ------11------------11----------|-------------------------11----------|
 ----------14------------14------|-----------------------------14------|
 --------------------------------|--------------13---------------------|
 --------------------------------|--13-13-13-13-13---------------------|
 --------------------------------|--13-13-13-13-13---------------------|

[E] [E] [E] [E] [E] [E] [E] [E]  
 
 ---L----------15----------15-------||
 ------11----------11----------11---||
 ----------14----------14----------*||
 ----------------------------------*||
 -----------------------------------||
 -----------------------------------||

S S S S E E E E S S S S E E E E S S S S E E
 
 --13h-17p-13-13-----13----------13h-17p-13-13-|------13------13--13h-17p-13-13-----13--|
 ------------------------11--------------------|----------11----------------------------|
 ----------------14----------14----------------|--14----------------------------14------|
 ----------------------------------------------|----------------------------------------|
 ----------------------------------------------|----------------------------------------|
 ----------------------------------------------|----------------------------------------|

S S S S E E E E S S S S E E E E S S S S E E
 
 --11h-15p-11-11-----11------11--11h-15p-11-11-|------11------11--11h-15p-11-11-----11--|
 ------------------------11--------------------|----------11----------------------------|
 ----------------14----------------------------|--14----------------------------14------|
 ----------------------------------------------|----------------------------------------|
 ----------------------------------------------|----------------------------------------|
 ----------------------------------------------|----------------------------------------|

S S S S E E E E S S S S
E E E E S S S S E E
 
 --13h-17p-13-13-----13----------13h-17p-13-13-|------13------13--13h-17p-13-13-----13--|
 ------------------------11--------------------|----------11----------------------------|
 ----------------14----------14----------------|--14----------------------------14------|
 ----------------------------------------------|----------------------------------------|
 ----------------------------------------------|----------------------------------------|
 ----------------------------------------------|----------------------------------------|

[E] [E] [E] [E] [E] [E] [E] [E]  
 
 --17--17--17b--17pb--17pb--17pb--17pb--17pb--|
 ---------------------------------------------|
 ---------------------------------------------|
 ---------------------------------------------|
 ---------------------------------------------|
 ---------------------------------------------|

E E E E E Q. E E E E E E
 
 --17pb--17pb--17pb--17pb--17--17\------|--------------------|
 ---------------------------------------|--------------------|
 ---------------------------------------|--------------------|
 ---------------------------------------|--------------------|
 ---------------------------------------|-----------5--5-----|
 ---------------------------------------|--5--5--------------|

E E E E S S E E E E E E E E E E E S S E
 
 -----------------------|--------------------|-----------------------|
 -----------------------|--------------------|-----------------------|
 -----------------------|--------------------|-----------------------|
 --5--5-----7--8p-7p-0--|--------------------|--5--5-----7--8p-7p-0--|
 -----------------------|-----------5--5-----|-----------------------|
 -----------------------|--5--5--------------|-----------------------|

E E E E E E E E E E S S E E E E E E E
 
 --------------------|---------------------------|----------------------------|
 --------------------|---------------------------|----------------------------|
 --------------------|---------------------------|----------------------------|
 --------------------|--8--8-----10--12p-10h-12--|--12br---L--10--12--10------|
 -----------8--8-----|---------------------------|------------------------13--|
 --8--8--------------|---------------------------|----------------------------|

E E E E E E E E E Q E E E E Q E
 
 --------------------------||-----------------------|----------------------|
 --------------------------||-------------10--------|------------10--------|
 ----------10----------10--||*-----10-----------10--|-----10-----------10--|
 --------------------------||*--8------8------------|--8------8------------|
 --12--13------12--13------||-----------------------|----------------------|
 --------------------------||-----------------------|----------------------|

E E E Q E E E E Q E E E E Q E
 
 ---------------------|---------------------|-----------8-------|
 ------------8--------|------------8--------|-----6----------6--|
 -----10----------10--|-----10----------10--|--7-----7----------|
 --8------8-----------|--8------8-----------|-------------------|
 ---------------------|---------------------|-------------------|
 ---------------------|---------------------|-------------------|

E E E Q E E E E Q E E E E Q E 4x
 
 -----------8-------|-----------10-------|-----------10--------||
 -----6----------6--|-----6-----------6--|-----6-----------6---||
 --7-----7----------|--7-----7-----------|--7-----7-----------*||
 -------------------|--------------------|--------------------*||
 -------------------|--------------------|---------------------||
 -------------------|--------------------|---------------------||

[E] [E] [E] [E] [E] [E] [E] [E] [E] [E] [E] [E] [E] [E] [E] [E] [E] [E]  
 
 --8--8--8--8--8--8--|--8--8--8--8--8--8--|--10--10--10--10--10--10b--|
 --6--6--6--6--6--6--|--6--6--6--6--6--6--|---6---6---6---------------|
 --7--7--7--7--7--7--|--7--7--7--7--7--7--|---8---8---8---------------|
 --------------------|--------------------|---------------------------|
 --------------------|--------------------|---------------------------|
 --------------------|--------------------|---------------------------|

PM PM PM
E E E E E E Q. E Q Q. E E E
 
 --10b--10b--10b--10b--10p--0--|-----------------|------------------|
 ------------------------------|-----------------|------------------|
 ------------------------------|-----------------|------------------|
 ------------------------------|--7------7--3----|--0------5--3--0--|
 ------------------------------|--7------7--3----|--0------5--3--0--|
 ------------------------------|--7------7--3----|--0------5--3--0--|

PM PM PM PM PM PM
 
 |-----3-----| 

Q. E E E Q Q Q Q Q. E E E
 
 ------------------|-------------------------|------------------|
 ------------------|-------------------------|------------------|
 ------------------|-------------------------|------------------|
 --8------3--2--0--|--10----3----Lbr----L----|--0------3--2--0--|
 --8------3--2--0--|--10----3----Lbr----L----|--0------3--2--0--|
 --8------3--2--0--|--10----3----Lbr----L----|--0------3--2--0--|

PM PM PM PM PM PM
 
 |-----3-----| 

Q. E E E Q. E E E Q Q Q Q
 
 -------------------|-------------------|------------------------|
 -------------------|-------------------|------------------------|
 -------------------|-------------------|------------------------|
 --6\------3--2--0--|--6\------3--2--0--|--6----0----Lbr----L----|
 --6\------3--2--0--|--6\------3--2--0--|--6----0----Lbr----L----|
 --6\------3--2--0--|--6\------3--2--0--|--6----0----Lbr----L----|

PM PM PM PM PM PM
Q. E Q Q. E E E Q. E E E
 
 -----------------|------------------|------------------|
 -----------------|------------------|------------------|
 -----------------|------------------|------------------|
 --7------7--3----|--0------5--3--0--|--8------3--2--0--|
 --7------7--3----|--0------5--3--0--|--8------3--2--0--|
 --7------7--3----|--0------5--3--0--|--8------3--2--0--|

PM PM PM PM PM PM
 
 |-----3-----| 

Q Q Q Q Q. E E E Q. E E E
 
 -------------------------|------------------|-------------------|
 -------------------------|------------------|-------------------|
 -------------------------|------------------|-------------------|
 --10----3----Lbr----L----|--0------3--2--0--|--6\------3--2--0--|
 --10----3----Lbr----L----|--0------3--2--0--|--6\------3--2--0--|
 --10----3----Lbr----L----|--0------3--2--0--|--6\------3--2--0--|

PM PM PM neck bend
Q. E E E Q H H. H.
 
 -------------------|----------------|---------------|---------------|
 -------------------|----------------|---------------|---------------|
 -------------------|----------------|---------------|---------------|
 --6\------3--2--0--|--6----0--------|--L------------|--L------------|
 --6\------3--2--0--|--6----0--------|--L------------|--L------------|
 --6\------3--2--0--|--6----0--------|--L------------|--L------------|

H. H. W W
 
 ---------------|---------------||--------------------|--------------------||
 ---------------|---------------||--------------------|--------------------||
 ---------------|---------------||*-------------------|-------------------*||
 --L------------|--L------------||*--L----------------|--L----------------*||
 --L------------|--L------------||---L----------------|--L-----------------||
 --L------------|--L------------||---L----------------|--L-----------------||

PM PM PM PM PM PM PM PM PM PM PM PM
|-3-| |-3-|
S S S E E E E E E E S S S E E E E E E E
 
 -----------------------------|-----------------------------|
 --------8--------------------|--9--------------------------|
 ------7----------------------|----7------------------------|
 ----6------------------------|------6----------------------|
 --5--------------------------|--------5--------------------|
 -----------0--0--0--0--0--0--|-----------0--0--0--0--0--0--|

PM PM PM PM PM PM PM PM PM PM PM PM
|-3-| |-3-|
S S S E E E E E E E S S S E E E E E E E
 
 -----------------------------|-----------------------------|
 --------8--------------------|--9--------------------------|
 ------7----------------------|----7------------------------|
 ----6------------------------|------6----------------------|
 --5--------------------------|--------5--------------------|
 -----------0--0--0--0--0--0--|-----------0--0--0--0--0--0--|

PM PM
 
 |--3--| |--3--| 

S S S E E E S S S E E E
 
 ----------------------------------------|
 -----------20--------21-----------------|
 --------19--------------19--------------|
 -----18--------------------18-----------|
 --17--------------------------17--------|
 ---------------0--0---------------0--0--|

PM PM PM PM
 
 |--3--| |--3--| ^ ^ ^ ^ ^ ^ ^ ^ 

S S S E E E S S S E E E E E E E E E E E
 
 ----------------------------------------|----------------------------------|
 -----------20--------21-----------------|--20--20--20--20--20--20--20--20--|
 --------19--------------19--------------|--19--19--19--19--19--19--19--19--|
 -----18--------------------18-----------|--18--18--18--18--18--18--18--18--|
 --17--------------------------17--------|--17--17--17--17--17--17--17--17--|
 ---------------0--0---------------0--0--|----------------------------------|

^ ^ ^ ^ ^ ^ ^ ^ PM PM PM PM PM PM
[E] [E] [E] [E] [E] [E] [E] [E] [E] [E] [E] [E] [E] [E] [E] [E]  
 
 ----------------------------------|--------------------------|
 --20--20--20--20--20--20--20--20--|--------------------------|
 --19--19--19--19--19--19--19--19--|--------------------------|
 --18--18--18--18--18--18--18--18--|--0--1--2--1--2--3--2--3--|
 --17--17--17--17--17--17--17--17--|--0--1--2--1--2--3--2--3--|
 ----------------------------------|--0--1--2--1--2--3--2--3--|

PM PM PM PM PM PM PM PM PM AH AH AH PM PM PM PM PM PM
 
 |--3--| |--3--| |--3--| |-----3-----| 

[E] [E] [E] [E] [E] [E] [E] [E] [E] [E] [E] [E] [E] [E] [E] [E] [E] [E] [E] [E]  
 
 -----------------------------------------------|--------------------------|
 -----------------------------------------------|--------------------------|
 -----------------------------------------------|--------------------------|
 --6--5--4--5--4--3--4--3--2--(4b)--(5b)--(6b)--|--0--1--2--1--2--3--2--3--|
 --6--5--4--5--4--3--4--3--2--------------------|--0--1--2--1--2--3--2--3--|
 --6--5--4--5--4--3--4--3--2--------------------|--0--1--2--1--2--3--2--3--|

TP TP TP TP PM PM PM PM PM PM PM
Q Q Q Q E E E E E E E E
 
 ----------------------|--------------------------|
 ----------------------|--------------------------|
 ----------------------|--------------------------|
 ------------3----2----|--0--1--2--1--2--3--2--3--|
 --7----6----5----4----|--0--1--2--1--2--3--2--3--|
 --5----4--------------|--0--1--2--1--2--3--2--3--|

PM PM PM PM PM PM PM PM PM AH AH AH PM PM PM PM PM PM
 
 |--3--| |--3--| |--3--| |-----3-----| 

[E] [E] [E] [E] [E] [E] [E] [E] [E] [E] [E] [E] [E] [E] [E] [E] [E] [E] [E] [E]  
 
 -----------------------------------------------|--------------------------|
 -----------------------------------------------|--------------------------|
 -----------------------------(4b)--(5b)--(6b)--|--------------------------|
 --6--5--4--5--4--3--4--3--2--(4b)--(5b)--(6b)--|--0--1--2--1--2--3--2--3--|
 --6--5--4--5--4--3--4--3--2--------------------|--0--1--2--1--2--3--2--3--|
 --6--5--4--5--4--3--4--3--2--------------------|--0--1--2--1--2--3--2--3--|

TP TP TP TP TP TP TP TP TP TP
Q Q Q Q Q Q Q Q Q Q H
 
 ----------------------|------------------------|------------------------|
 ----------------------|------------------------|------------------------|
 ----------------------|------------------------|------------------------|
 ------------3----2----|--6----5----10-----9----|--15----14-----L--------|
 --7----6----5----4----|--8----7----12----11----|--17----16-----L--------|
 --5----4--------------|------------------------|------------------------|

W W E E E E E E E E E E Q E E Q
 
 --------------------|-------------------|--------------------------|------------------------||
 --------------------|-------------------|--------------------------|------------------------||
 --------------------|-------------------|--------------------------|------------------------||
 ---L----------------|-------------------|--8--8--8--8--8--8--8--8--|--------5----------5----||
 ---L----------------|-------------------|--8--8--8--8--8--8--8--8--|--0--0--5----0--0--5----||
 --------------------|-------------------|--8--8--8--8--8--8--8--8--|--0--0--5----0--0--5----||

Duration Legend
 
 ---------------

W - whole
H - half
Q - quarter
E - 8th
S - 16th
T - 32nd
X - 64th
. - note dotted
|-n-| - n-tuplets
Tablature Legend
 
 ----------------

L - tied note
x - dead note
NH - natural harmonic
AH - artificial harmonic
TH - tapped harmonic
h - hammer on
p - pull off
b - bend
/ - slide into from below or out of upwards
\ - slide into from above or out of downwards
~ - vibrato
W - wide vibrato
tr - trill
TP - tremolo picking
T - tapping
< - fade in
^ - brush up
v - brush down

Important: The song above is NOT stored on the Chordie server. The original song is hosted at www.azchords.com. Chordie works as a search engine and provides on-the-fly formatting. Chordie does not index songs against artists'/composers' will. To remove this song please click here.

Text color:
Chord color:
Chord grids: 
Font size:    
Page size: 

E
Rate #1 of 1 versions

Jango Player

Login - add to songbook

SHARE PAGE  




You need to log in to post comments