Guitar Tabs, Chords and Lyrics
Server problems seems to be fixed. Chordie has been experiencing problems with songs disappearing. These issues now seems to be fixed, but still verifying the fix. If you find anything strange, please email admin@chordie.com.


Whacko Jacko Steals the Elephant Manâ??s Bones   The Fall of Troy

 
 e|---------------4--0-----------------------|---------------4--0--------------7--5--0--|
 B|---------------------4-----5--0--7--5--0--|---------------------4-----5--0-----------|
 G|4-(4)-4-----------------------------------|4-----4-----------------------------------|
 D|6-(6)-6-----------------------------------|6-----6-----------------------------------|
 A|4-(4)-4-----------------------------------|4-----4-----------------------------------|
 E|------------------------------------------|------------------------------------------|

 


 \


 |1 + 2 + 3 + 4 + 5 + 6 + 7 + |1 + 2 + 3 + 4 + 5 + 6 + 7 + | x2


 [/]  

 
 e|---------------7--0--------------12-11-0--|---------------12-0--7-----0-----0--14-0--|
 B|---------------------9-----7--0-----------|------------------------------------------|
 G|------------------------------------------|6-----6-----------------------------------|
 D|2-----2-----------------------------------|6-----6-----------------------------------|
 A|2-----2-----------------------------------|0-----0-----------------------------------|
 E|0-----2-----------------------------------|5-----5-----------------------------------|

 


 


 === Chorus ===


 


 

 
 e|--0-7-0-------0-7-0-----|--0-7-0------:4---------| :----------|
 B|--------------------4-5-|-------------:--0-4-5-7-| :----------|
 G|6-------6---6-----------|6-------6---6:----------| x6 :----------|
 D|------------------------|-------------:----------| :----------|
 A|------------------------|-------------:----------| :----------|
 E|------------------------|-------------:----------| :----------|

 


 


 |1 + 2 + 3 + 4 + 5 + 6 + |1 + 2 + 3 + 4:+ 5 + 6 + | :+ 5 + 6 + |


 


 === VERSE ===


 


 

 
 e|---------------4--0-----------------------|---------------4--0--------------7--5--0--|
 B|---------------------4-----5--0--7--5--0--|---------------------4-----5--0-----------|
 G|4-(4)-4-----------------------------------|4-----4-----------------------------------|
 D|6-(6)-6-----------------------------------|6-----6-----------------------------------|
 A|4-(4)-4-----------------------------------|4-----4-----------------------------------|
 E|------------------------------------------|------------------------------------------|

 


 \


 |1 + 2 + 3 + 4 + 5 + 6 + 7 + |1 + 2 + 3 + 4 + 5 + 6 + 7 + | x2


 [/]  

 
 e|---------------7--0--------------12-11-0--|---------------12-0--7-----0-----0--14-0--|
 B|---------------------9-----7--0-----------|------------------------------------------|
 G|------------------------------------------|6-----6-----------------------------------|
 D|2-----2-----------------------------------|6-----6-----------------------------------|
 A|2-----2-----------------------------------|0-----0-----------------------------------|
 E|0-----2-----------------------------------|5-----5-----------------------------------|

 


 


 === Chorus ===


 


 

 
 e|--0-7-0-------0-7-0-----|--0-7-0------:4---------| :----------|
 B|--------------------4-5-|-------------:--0-4-5-7-| :----------|
 G|6-------6---6-----------|6-------6---6:----------| x6 :----------|
 D|------------------------|-------------:----------| :----------|
 A|------------------------|-------------:----------| :----------|
 E|------------------------|-------------:----------| :----------|

 


 


 |1 + 2 + 3 + 4 + 5 + 6 + |1 + 2 + 3 + 4:+ 5 + 6 + | :+ 5 + 6 + |


 


 === Bridge I ===


 


 

 
 e|------------------------|------------------------|------------------------|------------------------|
 B|------------------------|------------------------|------------------------|------------------------|
 G|--6---------6---6--(6)--|--6---------4---4--(4)--|--6---------6---6--(6)--|--6---------4---4--(4)--|
 D|----5-6-0---------------|----5-6-0---------------|----5-6-0---------------|----5-6-0---------------|
 A|4-----------7---7--(7)--|4-----------5---5--(5)--|4-----------7---7--(7)--|4-----------5---5--(5)--|
 E|------------------------|------------------------|------------------------|------------------------|

 


 


 |1 + 2 + 3 + 4 + 5 + 6 + |1 + 2 + 3 + 4 + 5 + 6 + |1 + 2 + 3 + 4 + 5 + 6 + |1 + 2 + 3 + 4 + 5 + 6 + |


 


 

 
 e|------------------------|------------------------|------------------------|----------*-------------|
 B|------------------------|------------------------|------------------------|------------------------|
 G|--6---------7-0-----7-0-|--6-----------------4-0-|--6---------7-0-----7-0-|--6---------------------|
 D|----5-6-0-0-----7-0-----|----5-6-0-0-----5-0-----|----5-6-0-0-----7-0-----|----5-6-0---------------|
 A|4-----------------------|4-----------5-0---------|4-----------------------|4-----------------------|
 E|------------------------|------------------------|------------------------|------------------------|

 


 


 === Chorus ===


 


 

 
 e|--0-7-0-------0-7-0-----|--0-7-0------:4---------| :----------|
 B|--------------------4-5-|-------------:--0-4-5-7-| :----------|
 G|6-------6---6-----------|6-------6---6:----------| x4 :----------|
 D|------------------------|-------------:----------| :----------|
 A|------------------------|-------------:----------| :----------|
 E|------------------------|-------------:----------| :----------|

 


 


 |1 + 2 + 3 + 4 + 5 + 6 + |1 + 2 + 3 + 4:+ 5 + 6 + | :+ 5 + 6 + |


 


 === Interlude ===


 


 

 
 e|----------0-7-0-|----------0-7-0-|----------0-5---|--4-------------|
 B|--4-0-5-0-------|--4-0-5-0-------|--4-0-5-0-------|--------7---5---|
 G|6---6-----6---6-|6---6-----6---6-|5---5-----5---5-|5---5-5---5---5-| x6
 D|----------------|----------------|----------------|----------------|
 A|----------------|----------------|----------------|----------------|
 E|----------------|----------------|----------------|----------------|

 


 


 |1 + 2 + 3 + 4 + |1 + 2 + 3 + 4 + |1 + 2 + 3 + 4 + |1 + 2 + 3 + 4 + |


 


 

 
 e|---------------0--19-0--|---------------0--19-0--|---------------0--17----|---16-------------------|
 B|---16-0--17-0-----------|---16-0--17-0-----------|---16-0--17-0-----------|------------19----17----|
 G|18----18-------18----18-|18----18-------18----18-|17----17-------17----17-|17----17-17----17----17-|
 D|------------------------|------------------------|------------------------|------------------------|
 A|------------------------|------------------------|------------------------|------------------------|
 E|------------------------|------------------------|------------------------|------------------------|

 


 


 |1 + 2 + 3 + 4 + |1 + 2 + 3 + 4 + |1 + 2 + 3 + 4 + |1 + 2 + 3 + 4 + |


 


 

 
 e|---------------0--19-0--|---------------0--19-0--|------------------------|------------------------|
 B|---16-0--17-0-----------|---16-0--17-0-----------|------------------------|19b~~~~~~~~~~~~~~~~~~~~~|
 G|18----18-------18----18-|18----18-------18----18-|17~~~~~~~~~~~~~~~~~~~~~~|17b~~~~~~~~~~~~~~~~~~~~~|
 D|------------------------|------------------------|------------------------|------------------------|
 A|------------------------|------------------------|------------------------|------------------------|
 E|------------------------|------------------------|------------------------|------------------------|
 e|--------------------------------|--------------------------------|
 B|--------------------------------|--------------------------------|
 G|8-------------------------------|--------------------------------| x4
 D|8----7----8---------10---9----10|---9----10--9-------------------|
 A|6----7----8---------10---9----10|---9----10--9-------------------|
 E|-----5----6----0----8----7----8-|---7----8---7---8--8--8-5--5--5-|

 


 


 |1 + 2 + 3 + 4 + |1 + 2 + 3 + a 4 + a |


 


 

 
 e|--------------------------------|--------------------------------|
 B|--------------------------------|--------------------------------|
 G|----------------15--------------|--------------------------------|
 D|--------------------------------|--------------------------------|
 A|----------------13--------------|--------------------------------|
 E|0-------------------------------|0---------------6--5--4-3--2--1-|\

 


 x2


 

 
 e|--------------------------------|--------------------------------|/
 B|--------------------------------|--------------------------------|
 G|----------------15--------------|--------------------------------|
 D|--------------------------------|----4---5-------8---8---5---4---|
 A|----------------13--------------|----4---5-------8---8---5---4---|
 E|0-------------------------------|0---2---3---0---6---5---3---2---|


Important: The song above is NOT stored on the Chordie server. The original song is hosted at www.azchords.com. Chordie works as a search engine and provides on-the-fly formatting. Chordie does not index songs against artists'/composers' will. To remove this song please click here.

This song is displayed as text-only. Transposing and tuning is only available for chordpro-songs.
Rate #1 of 1 versions

Login - add to songbook

SHARE PAGE  




You need to log in to post comments