Guitar Tabs, Chords and Lyrics
Server problems seems to be fixed. Chordie has been experiencing problems with songs disappearing. These issues now seems to be fixed, but still verifying the fix. If you find anything strange, please email admin@chordie.com.


Forest  The Feelers

4 Timing
Intro/ Verse
Acoustic Guitar
[Cmaj] [Gmaj]  
 
 e---------------------------3--3---3---3--3--3--3--3--3-------
 B--1-1--0--1-0-1---0-1-0----3--3---0---3--0--3--0--3--0-------
 G--0-0--0--0-0-0---0-0-0----0--0---0---0--0--0--0--0--0-------
 D--2-2--2--2-2-2---2-2-2----0--0---0---0--0--0--0--0--0-------
 A--3-3--3--3-3-3---3-3-3----2--2---2---2--2--2--2--2--2-------
 E---------------------------3--3---3---3--3--3--3--3--3-------

just play the chords, the added 5ths are optional,
i think i can hear them in there
1...2...3...4... .1...2..3...4 etc
Aminor Fmaj
 
 ---0--0--0-0-0--0--0-0-0---1--1-1--1--1-1--1-1-1----
 ---1--1--0-1-0--1--0-1-0---1--1-1--1--1-1--1-1-1----
 ---2--2--2-2-2--2--2-2-2---2--2-2--2--2-2--2-2-2----
 ---2--2--2-2-2--2--2-2-2---3--3-3--3--3-3--3-3-3----
 ---0--0--0-0-0--0--0-0-0---3--3-3--3--3-3--3-3-3----
 ---------------------------1--1-1--1--1-1--1-1-1----

Lead guitar
 
 e-------------------------------------------------------
 B--10------------------10~------------------------------
 G------12--9h10-12------------12--9h10-12--------------- play this once over each chord until Fmajor then
 D-------------------------------------------------------
 A-------------------------------------------------------
 E-------------------------------------------------------
 e---------------------------------------------------------
 B-------------------------------------------------------- play this
 G-12p10--9------12-12-12p10-9----------------------------
 D-----------10---------------------10~--10/12/14---------
 A--------------------------------------------------------
 E---------------------------------------------------------

Slide guitar
(this is played throughout all verses)
Cmaj Gmaj Aminor Fmaj
 
 e-----------------------------------------------------
 B--17~------17/15~-----17/13~----------8/10~-----
 G-----------------------------------------------------
 D-----------------------------------------------------
 A-----------------------------------------------------
 E------------------------------------------------------

Chorus
A minor Eminor ( just strum around these chords dont worry about pattern)
 
 e-0---------------0---------------------
 B-1---------------0---------------------
 G-2---------------0----------------------
 D-2---------------2----------------------
 A-0---------------2----------------------
 E-----------------0----------------------

in the last two chorus' the last three chords are added on
Aminor Eminor
 
 e-0---------------0---------------------------------
 B-1---------------0---------------------------------
 G-2---------------0-----------4--3--2-------------
 D-2---------------2-----------5--4--3-------------
 A-0---------------2-----------5--4--3------------
 E-----------------0-----------3--2--1-----------

Great song, love the lyrics
Mike Crawford -2002

Important: The song above is NOT stored on the Chordie server. The original song is hosted at www.azchords.com. Chordie works as a search engine and provides on-the-fly formatting. Chordie does not index songs against artists'/composers' will. To remove this song please click here.

Text color:
Chord color:
Chord grids: 
Font size:    
Page size: 

Cmaj Gmaj
Rate #1 of 1 versions

Jango Player

Login - add to songbook

SHARE PAGE  




You need to log in to post comments