Guitar Tabs, Chords and Lyrics
Server problems seems to be fixed. Chordie has been experiencing problems with songs disappearing. These issues now seems to be fixed, but still verifying the fix. If you find anything strange, please email admin@chordie.com.


Pressure Man   The Feelers

 
 e-------------------------------------
 B---5-5-5-5-5-5-5-5-5-5-5-5-5-5-5-5---
 G--7-7-7-7-7-7-7-7-6-6-6-6-6-6-6-6-----
 D-------------------------------------
 A-------------------------------------
 E-------------------------------------

 


 


 take the hammer etc etc


 


 chorus


 just power chords listen to get the rythm its so easy i cant be bothered


 


 

 
 D--7---------------------11-------------
 A--5x a whole lot--------9x a whole lot--
 E---------------------------------------

 


 and you pressure man or prey do you suffer through the gravity


 


 

 
 D-4-----------------------
 A-2-x a whole lot---------4---------
 E------------------------ 2x a whole lot-------

 


 and you predator or prey do you suffer my reality


 


 next verse repeat as above and chorus


 then after the "sometimes they come for me" interlude


 


 which has no guitar but the chorus power chords and some little licks


 but this tab is in lamemans term


 


 then this little bit


 [D---]  

 
 A---0-5-7-0-5-7-0-5-7-0-5-7-0-5-7-0-5-7-x a whole lot--


Important: The song above is NOT stored on the Chordie server. The original song is hosted at www.azchords.com. Chordie works as a search engine and provides on-the-fly formatting. Chordie does not index songs against artists'/composers' will. To remove this song please click here.

This song is displayed as text-only. Transposing and tuning is only available for chordpro-songs.
Rate #1 of 1 versions

Jango Player

Login - add to songbook

SHARE PAGE  




You need to log in to post comments