Guitar Tabs, Chords and Lyrics
Server problems seems to be fixed. Chordie has been experiencing problems with songs disappearing. These issues now seems to be fixed, but still verifying the fix. If you find anything strange, please email admin@chordie.com.


The Leaving  The Feelers

The Leaving by The Feelers
Intro
[B] [E] [B] [E]  
 
 e|------------------------------|
 B|------------------------------|
 G|--4------1------4------1------|
 D|--4------2------4------2------|
 A|--2------2------2------2------|
 E|---------0-------------0------|

Main Riff
[F#m] [B]  
 
 e|------------------------------|
 B|--11--h12---11--h12-----------|
 G|--11---11---11---11-----------|
 D|--11---11---11---11---9-------|
 A|--9----9----9----9----9-------|
 E|----------------------7-------|

[F#m] [E]  
 
 e|------------------------------|
 B|--11--h12---11--h12-----------|
 G|--11---11---11---11---1-------|
 D|--11---11---11---11---2-------|
 A|--9----9----9----9----2-------|
 E|----------------------0-------|

Verse
[A] [F] [C] [E]  
 
 e|------------------| (this is just bass for
 B|------------------| a while, then the
 G|--2-------5---1---| distorted chords come
 D|--2---3---5---2---| in)
 A|--0---3---3---2---|
 E|------1-------0---|

at about 2:25 a little riff goes B|-8-10-| a few times
just go between the main riff and the verse (the last section is the
verse down one semitone) and thats the leaving!
-=|taken from pull the strings - the feelers guitar/bass archive|=-

Important: The song above is NOT stored on the Chordie server. The original song is hosted at www.azchords.com. Chordie works as a search engine and provides on-the-fly formatting. Chordie does not index songs against artists'/composers' will. To remove this song please click here.

Text color:
Chord color:
Chord grids: 
Font size:    
Page size: 

A B C E F F#m
Rate #1 of 1 versions

Jango Player

Login - add to songbook

SHARE PAGE  




You need to log in to post comments