Guitar Tabs, Chords and Lyrics
Update 25:10. 13:00. Site is back up running again. Songbooks are recovered. Woring on getting search back up..


Acid Jazz Singer  The Fratellis

[Verse 1] 
[A]Well let me tell you something let me tell you so
This could be the one thing that you really need to know
You got to [D]stop once in a while
And shake off that f[A]ace of yours
Cause n[F#]othing comes easy no it j[C#]ust comes free
[F#]You could sing it better if you'd s[C#]ing it for me oh si[E]ster
[Verse 2] 
Well I [A]cannot claim this advice as my own
I learned it in the gutter one night coming home
She said "D[D]on't you look ridiculous" I checked her out meticulous[A]ly
I w[F#]ould've stopped to argue but my te[C#]eth were broke
I said "I'd l[F#]ove to contradict you but my li[C#]fe's a joke oh sis[E]ter"
[Cborus] 
She said I[A]'m no genius and I've lost my self
The books are on the table and the secrets on the shelf
And it's o[D]ne time keep it slow wind them up and here we go
[A]Get it right today and you may still be here tomorrow
[E]Some said she was saintly to some she was a swinger
[D]Me I only knew her as an acid jazz singer come o[A]n
[Instrumental Break] 
 
 e|-----------------|---------5------------------------------------|
 B|-----------------|----------------------------------------------|
 G|-7??7??5??7??7??5-----|-7-7-5----------------------------------------|
 D|--------------7--|-------7--------------------------------------|
 A|-----------------|----------------------------------------------|
 E|-----------------|----------------------------------------------|

[Verse 3] 
Well I[A]'m a lucky man and maybe so is she
And maybe this is just the way it has to be
It's all b[D]ased on speculation seems a crazy occupation to [A]me
And though I d[F#]idn't much believe her I was b[C#]ound to call
I really d[F#]idn't want to miss a single th[C#]ing at all oh si[E]ster
[Cborus] 
She said I[A]'m no genius and I've lost my self
The books are on the table and the secrets on the shelf
And it's o[D]ne time keep it slow wind them up and here we go
[A]Get it right today and you may still be here tomorrow
[E]Some said she was saintly to some she was a swinger
[D]Me I only knew here as an acid jazz singer come [A]on
[Instrumental Break] 
 
 e|-----------------|---------5------------------------------------|
 B|-----------------|----------------------------------------------|
 G|-7??7??5??7??7??5-----|-7-7-5----------------------------------------|
 D|--------------7--|-------7--------------------------------------|
 A|-----------------|----------------------------------------------|
 E|-----------------|----------------------------------------------|
 e|--------------------|-------------8-----------------------------|
 B|--------------------|-------------------------------------------|
 G|-10-10-8??10??10??8----|--10-10-8----------------------------------|
 D|-----------------10-|----------10-------------------------------|
 A|--------------------|-------------------------------------------|
 E|--------------------|-------------------------------------------|

(repeat 4x with varying speed)
 
 e|---9----7---??5----??4-------------------------------------------|
 B|---------------------------------------------------------------|
 G|??9---7----5-----4----------------------------------------------|
 D|---------------------------------------------------------------|
 A|---------------------------------------------------------------|
 E|---------------------------------------------------------------|
 e|---------------------------------------------------------------|
 B|---------------------------------------------------------------|
 G|---7----5---------------7--------------------------------------|
 D|------------7------5----7--------------------------------------|
 A|------------------------5--------------------------------------|
 E|---------------------------------------------------------------|

[Cborus] 
She said I[A]'m no genius and I've lost my self
The books are on the table and the secrets on the shelf
And it's o[D]ne time keep it slow wind them up and here we go
[A]Get it right today and you may still be here tomorrow
[E]Some said she was saintly to some she was a swinger
[D]Me I only knew here as an acid jazz singer come [A]on
I h[E]aven't seen her lately man I have to ring her
[D]Put your hands together for the acid jazz singer co[A]me on
[Outro] 
[A]La la la la[G] l[C]a
[A]La la la la[G] l[C]a
[A]La la la la[G] l[C]a

Important: The song above is NOT stored on the Chordie server. The original song is hosted at www.azchords.com. Chordie works as a search engine and provides on-the-fly formatting. Chordie does not index songs against artists'/composers' will. To remove this song please click here.

Text color:
Chord color:
Chord grids: 
Font size:    
Page size: 

A C C# D E F# G
Rate #1 of 7 versions

Login - add to songbook

SHARE PAGE  




You need to log in to post comments