Guitar Tabs, Chords and Lyrics
Server problems seems to be fixed. Chordie has been experiencing problems with songs disappearing. These issues now seems to be fixed, but still verifying the fix. If you find anything strange, please email admin@chordie.com.


Father   The Front Bottoms

 
 e|-----------------|-----------------|-----------------|-----------------|
 B|-----------------|-----------------|-----------------|-----------------|
 G|-----------------|-----------------|-3-3-3-3-3-3-3-3-|-3-3-3-3-3-3-3-3-|
 D|-3-3-3-3-3-3-3-3-|-3-3-3-3-3-3-3-3-|-3-3-3-3-3-3-3-3-|-3-3-3-3-3-3-3-3-|
 A|-3-3-3-3-3-3-3-3-|-3-3-3-3-3-3-3-3-|-1-1-1-1-1-1-1-1-|-1-1-1-1-1-1-1-1-|
 E|-1-1-1-1-1-1-1-1-|-1-1-1-1-1-1-1-1-|-----------------|-----------------|
 e|-----------------|-----------------|-----------------|-----------------|
 B|-----------------|-----------------|-----------------|-----------------|
 G|-5-5-5-5-5-5-5-5-|-5-5-5-5-5-5-5-5-|-3-3-3-3-3-3-3-3-|-3-3-3-3-3-3-3-3-|
 D|-5-5-5-5-5-5-5-5-|-5-5-5-5-5-5-5-5-|-3-3-3-3-3-3-3-3-|-3-3-3-3-3-3-3-3-|
 A|-3-3-3-3-3-3-3-3-|-3-3-3-3-3-3-3-3-|-1-1-1-1-1-1-1-1-|-1-1-1-1-1-1-1-1-|
 E|-----------------|-----------------|-----------------|-----------------|

 


 


 [Verse 1] 


 

 
 e|-----------------|-----------------|-----------------|-----------------||
 B|-----------------|-----------------|-----------------|-----------------||
 G|-----------------|-----------------|-3-3-3-3-3-3-3-3-|-3-3-3-3-3-3-3-3-||
 D|-3-3-3-3-3-3-3-3-|-3-3-3-3-3-3-3-3-|-3-3-3-3-3-3-3-3-|-3-3-3-3-3-3-3-3-||
 A|-3-3-3-3-3-3-3-3-|-3-3-3-3-3-3-3-3-|-1-1-1-1-1-1-1-1-|-1-1-1-1-1-1-1-1-||
 E|-1-1-1-1-1-1-1-1-|-1-1-1-1-1-1-1-1-|-----------------|-----------------||

 


 | (x2)


 

 
 e|-----------------|-----------------|-----------------|-----------------||
 B|-----------------|-----------------|-----------------|-----------------||
 G|-5-5-5-5-5-5-5-5-|-5-5-5-5-5-5-5-5-|-3-3-3-3-3-3-3-3-|-3-3-3-3-3-3-3-3-||
 D|-5-5-5-5-5-5-5-5-|-5-5-5-5-5-5-5-5-|-3-3-3-3-3-3-3-3-|-3-3-3-3-3-3-3-3-||
 A|-3-3-3-3-3-3-3-3-|-3-3-3-3-3-3-3-3-|-1-1-1-1-1-1-1-1-|-1-1-1-1-1-1-1-1-||
 E|-----------------|-----------------|-----------------|-----------------||

 


 


 [Pre-Cborus 1] 


 

 
 e|-----------------|-----------------|-----------------|-----------------|
 B|-----------------|-----------------|-----------------|-----------------|
 G|-7-7-7-7-7-7-7-7-|-5-5-5-5-5-5-5-5-|-3-3-3-3-3-3-3-3-|-3-3-3-3-3-3-3-3-|
 D|-7-7-7-7-7-7-7-7-|-5-5-5-5-5-5-5-5-|-3-3-3-3-3-3-3-3-|-3-3-3-3-3-3-3-3-|
 A|-5-5-5-5-5-5-5-5-|-3-3-3-3-3-3-3-3-|-1-1-1-1-1-1-1-1-|-1-1-1-1-1-1-1-1-|
 E|-----------------|-----------------|-----------------|-----------------|
 e|-----------------|-----------------|-----------------|-----------------|
 B|-----------------|-----------------|-----------------|-----------------|
 G|-7-7-7-7-7-7-7-7-|-5-5-5-5-5-5-5-5-|-----------------|-3-3-3-3-3-3-3-3-|
 D|-7-7-7-7-7-7-7-7-|-5-5-5-5-5-5-5-5-|-3-3-3-3-3-3-3-3-|-3-3-3-3-3-3-3-3-|
 A|-5-5-5-5-5-5-5-5-|-3-3-3-3-3-3-3-3-|-3-3-3-3-3-3-3-3-|-1-1-1-1-1-1-1-1-|
 E|-----------------|-----------------|-1-1-1-1-1-1-1-1-|-----------------|
 e|-----------------|-----------------|
 B|-----------------|-----------------|
 G|-5-5-5-5-5-5-5-5-|-5-5-5-5-5-5-5-5-|
 D|-5-5-5-5-5-5-5-5-|-5-5-5-5-5-5-5-5-|
 A|-3-3-3-3-3-3-3-3-|-3-3-3-3-3-3-3-3-|
 E|-----------------|-----------------|

 


 


 [Cborus 1] 


 

 
 e|-----------------------|-------------------------|-----------------|
 B|-----------------------|-------------------------|-----------------|
 G|--3---3-5---5-7---7--7-|-10-10-10-10-10-10-10-10-|-----------------|
 D|--3---3-5---5-7---7--7-|-10-10-10-10-10-10-10-10-|-8-8-8-8-8-8-8-8-| (x4)
 A|--1---1-3---3-5---5--5-|--8--8--8--8--8--8--8--8-|-8-8-8-8-8-8-8-8-|
 E|-----------------------|-------------------------|-6-6-6-6-6-6-6-6-|

 


 


 [Verse 2] 


 

 
 e|-----------------|-----------------|-----------------|-----------------||
 B|-----------------|-----------------|-----------------|-----------------||
 G|-----------------|-----------------|-3-3-3-3-3-3-3-3-|-3-3-3-3-3-3-3-3-||
 D|-3-3-3-3-3-3-3-3-|-3-3-3-3-3-3-3-3-|-3-3-3-3-3-3-3-3-|-3-3-3-3-3-3-3-3-||
 A|-3-3-3-3-3-3-3-3-|-3-3-3-3-3-3-3-3-|-1-1-1-1-1-1-1-1-|-1-1-1-1-1-1-1-1-||
 E|-1-1-1-1-1-1-1-1-|-1-1-1-1-1-1-1-1-|-----------------|-----------------||

 


 | (x2)


 

 
 e|-----------------|-----------------|-----------------|-----------------||
 B|-----------------|-----------------|-----------------|-----------------||
 G|-5-5-5-5-5-5-5-5-|-5-5-5-5-5-5-5-5-|-3-3-3-3-3-3-3-3-|-3-3-3-3-3-3-3-3-||
 D|-5-5-5-5-5-5-5-5-|-5-5-5-5-5-5-5-5-|-3-3-3-3-3-3-3-3-|-3-3-3-3-3-3-3-3-||
 A|-3-3-3-3-3-3-3-3-|-3-3-3-3-3-3-3-3-|-1-1-1-1-1-1-1-1-|-1-1-1-1-1-1-1-1-||
 E|-----------------|-----------------|-----------------|-----------------||

 


 


 [Pre-Cborus 2] 


 

 
 e|-----------------|-----------------|-----------------|-----------------|
 B|-----------------|-----------------|-----------------|-----------------|
 G|-7-7-7-7-7-7-7-7-|-5-5-5-5-5-5-5-5-|-3-3-3-3-3-3-3-3-|-3-3-3-3-3-3-3-3-|
 D|-7-7-7-7-7-7-7-7-|-5-5-5-5-5-5-5-5-|-3-3-3-3-3-3-3-3-|-3-3-3-3-3-3-3-3-|
 A|-5-5-5-5-5-5-5-5-|-3-3-3-3-3-3-3-3-|-1-1-1-1-1-1-1-1-|-1-1-1-1-1-1-1-1-|
 E|-----------------|-----------------|-----------------|-----------------|
 e|-----------------|-----------------|-----------------|-----------------|
 B|-----------------|-----------------|-----------------|-----------------|
 G|-7-7-7-7-7-7-7-7-|-5-5-5-5-5-5-5-5-|-----------------|-3-3-3-3-3-3-3-3-|
 D|-7-7-7-7-7-7-7-7-|-5-5-5-5-5-5-5-5-|-3-3-3-3-3-3-3-3-|-3-3-3-3-3-3-3-3-|
 A|-5-5-5-5-5-5-5-5-|-3-3-3-3-3-3-3-3-|-3-3-3-3-3-3-3-3-|-1-1-1-1-1-1-1-1-|
 E|-----------------|-----------------|-1-1-1-1-1-1-1-1-|-----------------|
 e|-----------------|-----------------|
 B|-----------------|-----------------|
 G|-5-5-5-5-5-5-5-5-|-5-5-5-5-5-5-5-5-|
 D|-5-5-5-5-5-5-5-5-|-5-5-5-5-5-5-5-5-|
 A|-3-3-3-3-3-3-3-3-|-3-3-3-3-3-3-3-3-|
 E|-----------------|-----------------|

 


 


 [Cborus 2] 


 

 
 e|-----------------------|-------------------------|-----------------|
 B|-----------------------|-------------------------|-----------------|
 G|--3---3-5---5-7---7--7-|-10-10-10-10-10-10-10-10-|-----------------|
 D|--3---3-5---5-7---7--7-|-10-10-10-10-10-10-10-10-|-8-8-8-8-8-8-8-8-| (x4)
 A|--1---1-3---3-5---5--5-|--8--8--8--8--8--8--8--8-|-8-8-8-8-8-8-8-8-|
 E|-----------------------|-------------------------|-6-6-6-6-6-6-6-6-|

 


 


 [Bridge 2] 


 

 
 e|-----------------|-----------------|-------------------------|-----------------|
 B|-----------------|-----------------|-------------------------|-----------------|
 G|-5-5-5-5-5-5-5-5-|-5-5-5-5-5-5-5-5-|-10-10-10-10-10-10-10-10-|-3-3-3-3-3-3-3-3-|
 D|-5-5-5-5-5-5-5-5-|-5-5-5-5-5-5-5-5-|-10-10-10-10-10-10-10-10-|-3-3-3-3-3-3-3-3-|
 A|-3-3-3-3-3-3-3-3-|-3-3-3-3-3-3-3-3-|--8--8--8--8--8--8--8--8-|-1-1-1-1-1-1-1-1-|
 E|-----------------|-----------------|-------------------------|-----------------|
 e|-----------------|-----------------|-------------------------|-----------------|
 B|-----------------|-----------------|-------------------------|-----------------|
 G|-5-5-5-5-5-5-5-5-|-5-5-5-5-5-5-5-5-|-10-10-10-10-10-10-10-10-|-3-3-3-3-3-3-3-3-|
 D|-5-5-5-5-5-5-5-5-|-5-5-5-5-5-5-5-5-|-10-10-10-10-10-10-10-10-|-3-3-3-3-3-3-3-3-|
 A|-3-3-3-3-3-3-3-3-|-3-3-3-3-3-3-3-3-|--8--8--8--8--8--8--8--8-|-1-1-1-1-1-1-1-1-|
 E|-----------------|-----------------|-------------------------|-----------------|
 e|-----------------|-----------------|
 B|-----------------|-----------------|
 G|-5-5-5-5-5-5-5-5-|-5-5-5-5-5-5-5-5-|
 D|-5-5-5-5-5-5-5-5-|-5-5-5-5-5-5-5-5-|
 A|-3-3-3-3-3-3-3-3-|-3-3-3-3-3-3-3-3-|
 E|-----------------|-----------------|

 


 


 [Cborus 3] 


 

 
 e|-----------------------|-------------------------|-----------------|
 B|-----------------------|-------------------------|-----------------|
 G|--3---3-5---5-7---7--7-|-10-10-10-10-10-10-10-10-|-----------------|
 D|--3---3-5---5-7---7--7-|-10-10-10-10-10-10-10-10-|-8-8-8-8-8-8-8-8-| (x4)
 A|--1---1-3---3-5---5--5-|--8--8--8--8--8--8--8--8-|-8-8-8-8-8-8-8-8-|
 E|-----------------------|-------------------------|-6-6-6-6-6-6-6-6-|


Important: The song above is NOT stored on the Chordie server. The original song is hosted at www.azchords.com. Chordie works as a search engine and provides on-the-fly formatting. Chordie does not index songs against artists'/composers' will. To remove this song please click here.

This song is displayed as text-only. Transposing and tuning is only available for chordpro-songs.
Rate #1 of 7 versions

Jango Player

Login - add to songbook

SHARE PAGE  




You need to log in to post comments