Guitar Tabs, Chords and Lyrics
Server problems seems to be fixed. Chordie has been experiencing problems with songs disappearing. These issues now seems to be fixed, but still verifying the fix. If you find anything strange, please email admin@chordie.com.


Maps   The Front Bottoms

 
 E|-------------------|-----------------------|
 B|-------------------|-----------------------|
 G|-------------------|-----------------------|
 D|--7-7-7-7-7-7-7-7--|-x-x--5-5-5-5-5-5-5-5--|
 A|--5-5-5-5-5-5-5-5--|-x-x--3-3-3-3-3-3-3-3--|
 E|-------------------|-----------------------|

 


 


 [Verse 1] 


 

 
 E|------------------|------------------|
 B|------------------|------------------|
 G|------------------|------------------|
 D|---5---5---5---5--|---5---5---5---5--| (x4)
 A|------------------|------------------|
 E|-3---3---3---3----|-3---3---3---3----|
 E|--------------------|-------------------------|-------------------------|
 B|--------------------|-------------------------|-------------------------|
 G|--------------------|-------------------------|-------------------------|
 D|----5----5----5---5-|---5---5---5---5---5---5-|---5---5---5---5---5---5-|
 A|--2----2----3---3---|-------------------------|-------------------------|
 E|--------------------|-3---3---3---3---3---3---|-3---3---3---3---3---3---|
 E|--------------------|------------------|
 B|--------------------|------------------|
 G|--------------------|------------------|
 D|----5----5----5---5-|---5---5---5---5--|
 A|--2----2----3---3---|------------------|
 E|--------------------|-3---3---3---3----|
 E|------------------|----------------------------------------|---------------------|
 B|------------------|----------------------------------------|---------------------|
 G|------------------|----------------------------------------|---------------------|
 D|---5---5---5---5--|---5----5----5----5----5----5----5----5-|----5----5----5----5-|
 A|------------------|-5----5----2----2----3----3----3----3---|--3----3----3----3---|
 E|-5---5---5---5----|----------------------------------------|---------------------|

 


 


 [Verse 2] 


 

 
 E|------------------|------------------|
 B|------------------|------------------|
 G|------------------|------------------|
 D|---5---5---5---5--|---5---5---5---5--| (x3)
 A|------------------|------------------|
 E|-3---3---3---3----|-3---3---3---3----|
 E|--------------------|-------------------------|------------------------|
 B|--------------------|-------------------------|------------------------|
 G|--------------------|-------------------------|------------------------|
 D|----5----5----5---5-|---5---5---5---5---5---5-|---5---5---5---5---5----|
 A|--2----2----3---3---|-------------------------|------------------------|
 E|--------------------|-3---3---3---3---3---3---|-3---3---3---3---3---3--|
 E|------------------|
 B|------------------|
 G|--------5-5-------|
 D|--5-5---5-5---5~--|
 A|--5-5---3-3---5~--|
 E|--3-3---------3~--|
 E|------------------|----------------------------------------|---------------------|
 B|------------------|----------------------------------------|---------------------|
 G|------------------|----------------------------------------|---------------------|
 D|---5---5---5---5--|---5----5----5----5----5----5----5----5-|----5----5----5------|
 A|------------------|-5----5----2----2----3----3----3----3---|--3----3----3----3---|
 E|-5---5---5---5----|----------------------------------------|---------------------|

 


 


 [Pre-Cborus 1] 


 

 
 E|--------------------|--------------------------|
 B|--------------------|--------------------------|
 G|--------------------|--------------------------|
 D|--------------------|--------------------------| (x4)
 A|--3-3-3-3--2-2-2-2--|--5--5--5--5--5--5--5--5--|
 E|--1-1-1-1--0-0-0-0--|--3--3--3--3--3--3--3--3--|

 


 


 [Cborus 1] 


 

 
 E|-------------------|
 B|-------------------|
 G|--5-5-5-5-5-5-5-5--|
 D|--5-5-5-5-5-5-5-5--|(x4)
 A|--3-3-3-3-3-3-3-3--|
 E|-------------------|
 E|-------------------|
 B|-------------------|
 G|-------------------|
 D|--5-5-5-5-5-5-5-5--|(x2)
 A|--5-5-5-5-5-5-5-5--|
 E|--3-3-3-3-3-3-3-3--|
 E|-------------------|
 B|-------------------|
 G|-------------------|
 D|--3-3-3-3-3-3-3-3--|(x4)
 A|--3-3-3-3-3-3-3-3--|
 E|--1-1-1-1-1-1-1-1--|

 


 


 [Bridge] 


 

 
 E|-------------------|-----------------------|
 B|-------------------|-----------------------|
 G|-------------------|-----------------------|
 D|--7-7-7-7-7-7-7-7--|-x-x--5-5-5-5-5-5-5-5--|
 A|--5-5-5-5-5-5-5-5--|-x-x--3-3-3-3-3-3-3-3--|
 E|-------------------|-----------------------|

 


 


 [Verse 3] 


 

 
 E|------------------|------------------|
 B|------------------|------------------|
 G|------------------|------------------|
 D|---5---5---5---5--|---5---5---5---5--| (x3)
 A|------------------|------------------|
 E|-3---3---3---3----|-3---3---3---3----|
 E|--------------------|-------------------------|-------------------------|
 B|--------------------|-------------------------|-------------------------|
 G|--------------------|-------------------------|-------------------------|
 D|----5----5----5---5-|---5---5---5---5---5---5-|---5---5---5---5---5---5-|
 A|--2----2----3---3---|-------------------------|-------------------------|
 E|--------------------|-3---3---3---3---3---3---|-3---3---3---3---3---3---|
 E|--------------------|------------------|
 B|--------------------|------------------|
 G|--------------------|------------------|
 D|----5----5----5---5-|---5---5---5---5--|
 A|--2----2----3---3---|------------------|
 E|--------------------|-3---3---3---3----|
 E|------------------|----------------------------------------|---------------------|
 B|------------------|----------------------------------------|---------------------|
 G|------------------|----------------------------------------|---------------------|
 D|---5---5---5---5--|---5----5----5----5----5----5----5----5-|----5----5----5------|
 A|------------------|-5----5----2----2----3----3----3----3---|--3----3----3----3---|
 E|-5---5---5---5----|----------------------------------------|---------------------|

 


 


 [Verse 4] 


 

 
 E|------------------|------------------|
 B|------------------|------------------|
 G|------------------|------------------|
 D|---5---5---5---5--|---5---5---5---5--| (x3)
 A|------------------|------------------|
 E|-3---3---3---3----|-3---3---3---3----|
 E|--------------------|-------------------------|-------------------------|
 B|--------------------|-------------------------|-------------------------|
 G|--------------------|-------------------------|-------------------------|
 D|----5----5----5---5-|---5---5---5---5---5---5-|---5---5---5---5---5---5-|
 A|--2----2----3---3---|-------------------------|-------------------------|
 E|--------------------|-3---3---3---3---3---3---|-3---3---3---3---3---3---|
 E|--------------------|------------------|
 B|--------------------|------------------|
 G|--------------------|------------------|
 D|----5----5----5---5-|---5---5---5---5--|
 A|--2----2----3---3---|------------------|
 E|--------------------|-3---3---3---3----|
 E|------------------|------------------------------------------------------|
 B|------------------|------------------------------------------------------|
 G|------------------|------------------------------------------------------|
 D|---5---5---5---5--|---5----5----5----5----5----5----5----5----5----5-----|
 A|------------------|-5----5----2----2----3---3-----3----3----3----3----3--|
 E|-5---5---5---5----|------------------------------------------------------|

 


 


 [Pre-Cborus 2] 


 

 
 E|--------------------|--------------------------|
 B|--------------------|--------------------------|
 G|--------------------|--------------------------|
 D|--------------------|--------------------------| (x4)
 A|--3-3-3-3--2-2-2-2--|--5--5--5--5--5--5--5--5--|
 E|--1-1-1-1--0-0-0-0--|--3--3--3--3--3--3--3--3--|

 


 


 [Cborus 2] 


 

 
 E|-------------------|
 B|-------------------|
 G|--5-5-5-5-5-5-5-5--|
 D|--5-5-5-5-5-5-5-5--|(x4)
 A|--3-3-3-3-3-3-3-3--|
 E|-------------------|
 E|-------------------|
 B|-------------------|
 G|-------------------|
 D|--5-5-5-5-5-5-5-5--|(x2)
 A|--5-5-5-5-5-5-5-5--|
 E|--3-3-3-3-3-3-3-3--|
 E|-------------------|
 B|-------------------|
 G|-------------------|
 D|--3-3-3-3-3-3-3-3--|(x4)
 A|--3-3-3-3-3-3-3-3--|
 E|--1-1-1-1-1-1-1-1--|
 E|--------------------------------|
 B|--------------------------------|
 G|--------------------------------|
 D|--5-5---5---5-5---5----5-5---5--|
 A|--5-5---5---5-5---5----5-5---5--|
 E|--3-3---3---3-3---3----3-3---3--|

 


 


 [Outro] 


 

 
 E|-------------------|-----------------------|
 B|-------------------|-----------------------|
 G|-------------------|-----------------------|
 D|--7-7-7-7-7-7-7-7--|-x-x--5-5-5-5-5-5-5-5--|
 A|--5-5-5-5-5-5-5-5--|-x-x--3-3-3-3-3-3-3-3--|
 E|-------------------|-----------------------|
 E|-----------------|
 B|-----------------|
 G|-----------------|
 D|--5---5---5---5--|
 A|--5---5---5---5--|
 E|--3---3---3---3--| 


Important: The song above is NOT stored on the Chordie server. The original song is hosted at www.azchords.com. Chordie works as a search engine and provides on-the-fly formatting. Chordie does not index songs against artists'/composers' will. To remove this song please click here.

This song is displayed as text-only. Transposing and tuning is only available for chordpro-songs.
Rate #1 of 2 versions

Jango Player

Login - add to songbook

SHARE PAGE  




You need to log in to post comments