Guitar Tabs, Chords and Lyrics
Update 25:10. 13:00. Site is back up running again. Songbooks are recovered. Woring on getting search back up..


Big Toe  The Growlers

G, D, D#, Em
[Em]  
[Em]I‚??m a dealer with an infinite tab
G* (Riff 4)
A gentleman in some of the sense
[Em]She acts like I‚??m ripping off scabs
G* (Riff 4)
No wonder she has no friends at all
Em (Riff 1)
[G]She‚??s a lost cause
D D# Em (Riff 1)
So count your losses
[Em]How‚??s I supposed to know she‚??d ruin me
G* (Riff 4)
Beauty strong enough to trick me
[Em]Quick clouds of storms, so moody
G* (Riff 4)
Got me looking around in a forbidden city
Em (Riff 1)
[G]She‚??s the[B] coldest
[C]She‚??s turning me silver
[G]She‚??s got m[B]e on the bridge
[C]Looking down at the [Cm]old cold river
Em (Riff 2)
[Em]She could hex like a crow
G* (Riff 4)
She howls harder than the wind can blow
[Em]Her love‚??s so uncomfortable
G* (Riff 4)
She strikes down like a hammer on your
Em (Riff 1)
big toe
[G]She‚??s a lost cause
D D# Em (Riff 1)
So count your losses
[Em]Wasting her window of beauty
G* (Riff 4)
The only thing she has to offer
[Em]The grace of her face is a terrible waste
G* (Riff 4)
Behind, it‚??s something awful
Em (Riff 1)
[G]She‚??s a lost cause
D D# Em (Riff 1)
So count your losses
[G]She‚??s a c[B]old b**ch
[C]She‚??s turning me silver
[G]She‚??s got m[B]e on the bridge
[C]Looking down at the [Cm]old cold river
Riff 3
Riff 1:
 
 e|--7--6--5--3---------|

Riff 2:
 
 e|---------------------------|
 b|-------------8--10b11--p8--|
 g|-9--9\8--8-9---------------|

Riff 3:
 
 e|------------------------------------------------
 b|------------------------------------------------
 g|-9-9-9-9-9-8-8-5-5-5-5-4-4-4-4---2-4-4---2-4-4--
 d|-------------------------------5-------5-------- x2

Riff 4 (In the Verses)
 
 e|-7---7--7---7---10-----10----11-----12----------------|
 B|--8---8--8---8----12-----12----12-----12--------------|
 G|---9------9---------12-----------12-----12------------|
 D|------------------------------------------------------|
 A|------------------------------------------------------|
 E|------------------------------------------------------|

Chords Used:
G G* D D# Em B C Cm
 
 e|--3--X---x--x--x--7--8---8---|
 b|--3--12--7--8--8--7--8---8---|
 g|--4--12--7--8--9--8--9---8---|
 d|--5--12--7--8--9--9--10--10--|
 a|--5--10--5--6--7--9--10--10--|
 e|--3--X---x--x--x--7--8---8---|


Important: The song above is NOT stored on the Chordie server. The original song is hosted at www.azchords.com. Chordie works as a search engine and provides on-the-fly formatting. Chordie does not index songs against artists'/composers' will. To remove this song please click here.

Text color:
Chord color:
Chord grids: 
Font size:    
Page size: 

B C Cm Em G
Rate #1 of 1 versions

Jango Player

Login - add to songbook

SHARE PAGE  




You need to log in to post comments