Guitar Tabs, Chords and Lyrics
Update 25:10. 13:00. Site is back up running again. Songbooks are recovered. Woring on getting search back up..


Something Someone Jr.  The Growlers

INTRO (MAIN RIFF)
[Em]  
 
 e|--------------------------|\
 B|----------8--8-7-8-----8--| 3x
 G|----7--9------------9-----|/
 D|-9------------------------|
 A|--------------------------|
 E|--------------------------|

[Bm]  
 
 e|-----------------------|
 B|-----------------------|
 G|-9--9--7---------------|
 D|-----------9-9--7--9---|
 A|-----------------------|
 E|-----------------------|

Em G \ 3x
Aah Aaah /
[Bm]Aah [G]Aaah
[Em]Aah
VERSE 1 (play main riff throughout)
I just [Em]squinted and my eye is weak
I can‚??t find peace in a form of speech
My views change colors red hot ice cold
Black ain‚??t [Bm]a color happiness ain‚??t gold
PRE-CHORUS
Well it‚??[Em]s hard for me, t[G]o fee[Em]l normal easy to feel free
[G] Yeah it‚??[Em]s hard for y[G]ou to unde[Bm]rstand if you can‚??t feel me
Oh [G]unders[Em]tand
VERSE 2 (main riff played throughout)
I ain‚??t in [Em]a western in a way I can grasp
I try to hold on to something that is fast
If something is a way of something you don‚??t know
That is just a [Bm]way to make it visible
CHORUS
My [Em]name is Something Someone Jr., who is my dad
My [Am]momma is Catharine Anne Hoover and she‚??s all that, and that's a[Em]ll.. stiff
RE-INTRO
[Em]  
 
 e|--------------------------|\
 B|----------8--8-7-8-----8--| 3x
 G|----7--9------------9-----|/
 D|-9------------------------|
 A|--------------------------|
 E|--------------------------|

[Bm]  
 
 e|-----------------------|
 B|-----------------------|
 G|-9--9--7---------------|
 D|-----------9-9--7--9---|
 A|-----------------------|
 E|-----------------------|

PRE-CHORUS
Well it‚??[Em]s hard for me, t[G]o fee[Em]l normal easy to feel free
[G] Yeah it‚??[Em]s hard for y[G]ou to unde[Bm]rstand if you can‚??t feel me
Oh [G]unders[Em]tand
VERSE 3 (main riff played throughout)
I ain‚??t in [Em]a western in a way I can grasp
I try to hold on to something that is fast
If something is a way of something you don‚??t know
That is just a [Bm]way to make it visible
CHORUS
My [Em]name is Someone Jr., who is my dad
My [Am]momma she's Catharine Anne Hoover and she‚??s all that
My [Em]name is Something Someone Jr., who is my dad
My [Am]momma she's Catharine Anne Hoover and she‚??s all that, and that's all...
BRIDGE
Em \ 4x
Aaah aah aah /
Am \ 2x
Laa lalalalala laaa /
Em \ 4x
Aaah aah aah /
Am \ 2x
Laa lalalalala laaa /
CHORUS
My [Em]name is Someone Jr., who is my dad
My [Am]momma she's Catharine Anne Hoover and she‚??s all that, and that's all...
Em \ 3x
Aaah aah aah /
[Em]  
End on Am

Important: The song above is NOT stored on the Chordie server. The original song is hosted at www.azchords.com. Chordie works as a search engine and provides on-the-fly formatting. Chordie does not index songs against artists'/composers' will. To remove this song please click here.

Text color:
Chord color:
Chord grids: 
Font size:    
Page size: 

Am Bm Em G
Rate #1 of 1 versions

Login - add to songbook

SHARE PAGE  



You need to log in to post comments