Guitar Tabs, Chords and Lyrics
Server problems seems to be fixed. Chordie has been experiencing problems with songs disappearing. These issues now seems to be fixed, but still verifying the fix. If you find anything strange, please email admin@chordie.com.


All the TVs in Town  The Handsome Family

[E]  
 
 |-----7----------------|
 |-9-----9p7----7/9-7/9-|
 |-----------9----------|
 |----------------------|
 |----------------------|
 |----------------------|

[E]You can't see the stars above
[G#]the city skyline
but s[C#m]ometimes the air
shines like g[C]old under the yellow street lights
The psych[E]otics in the park
howling [G#]up at the sky
and the s[C#m]ilent airplanes
slowly drifting [F#m]by
Sometimes it a[B]ll seems to glow
as br[F#m]ight as the l[A]ights
from all the TVs in t[E]own
[E] [G#] [C#m] [C] [E] [G#] [C#m] [F#m]  
 
 |-----7-----------------------------------------------------7-9-12---16-16---16--16p14-------------12--14-14-|
 |-9-----9p7----7/9-7/9-----9-9p7---------9-9p7---------9--9----------------------------17-14---14------------|
 |-----------9--------------------9-6-----------9-5-----------------------------------------------------------|
 |------------------------------------------------------------------------------------------------------------|
 |------------------------------------------------------------------------------------------------------------|
 |------------------------------------------------------------------------------------------------------------|

Sometimes it a[B]ll seems to glow
as br[F#m]ight as the l[A]ights
from all the TVs in t[E]own
But wh[E]en I wake up scared
in those st[G#]ill summer nights
when the [C#m]air hangs like snakes
around fl[C]ashing neon signs
It se[E]ems like there's nothing
al[G#]ong these broken roads
but bl[C#m]inking lights
on creaking metal p[F#m]oles
Like a th[B]ousand crying eyes
Dropping t[F#m]ears in the l[A]ight
from all the TVs in t[E]own
T[F#m]ears in the l[A]ight
from all the TVs in t[E]own
[E] [G#] [C#m] [C] [E] [G#]  
 
 |-----7--------------------7--------------------7--------------------7--------------------7----------------|
 |-9-----9p7----7/9-7/9-------9p7----7/9-7/9-------9p7----7/9-7/9-------9p7----7/9-7/9-------9p7----7/9-7/9-|
 |-----------9--------------------9--------------------9--------------------9--------------------9----------|
 |----------------------------------------------------------------------------------------------------------|
 |----------------------------------------------------------------------------------------------------------|
 |----------------------------------------------------------------------------------------------------------|

[(FADE)] 

Important: The song above is NOT stored on the Chordie server. The original song is hosted at www.azchords.com. Chordie works as a search engine and provides on-the-fly formatting. Chordie does not index songs against artists'/composers' will. To remove this song please click here.

Text color:
Chord color:
Chord grids: 
Font size:    
Page size: 

A B C C#m E F#m G#
Rate #1 of 1 versions

Login - add to songbook

SHARE PAGE  




You need to log in to post comments