Guitar Tabs, Chords and Lyrics
Server problems seems to be fixed. Chordie has been experiencing problems with songs disappearing. These issues now seems to be fixed, but still verifying the fix. If you find anything strange, please email admin@chordie.com.


A Thousand Diamond Rings  The Handsome Family

INTRO:
[D]  
 
 |--------------------------|
 |-------------10-10h12p10--|
 |----------11--------------|
 |-------12-----------------|
 |----12--------------------|
 |-10-----------------------|

[D] [G] [A] [G] [D]  
 
 |--------------------10-----------------------------------------------------------5------|
 |-10-10-10--10----10----10---------------------------7-7/5-5-5--5h7p5-5--------7b---7p5--|
 |--------------------------11b-11/9-7-9p7-7-7----7-9--------------------7-7-7-9--------7-|
 |----------------------------------------------------------------------------------------|
 |----------------------------------------------------------------------------------------|
 |----------------------------------------------------------------------------------------|

VERSE 1:
A sm[D]ashed windshield, the dust on a pickup t[G]ruck
Sh[A]ine with silver secrets in the [G]Albuquerque s[D]un
The l[D]ight makes jewels of pawn shops and drive-thru b[G]anks
Wr[A]inkled faces staring out the w[G]indows of the l[D]aundromat
CHORUS:
And [Bm]even the broken glass s[F#m]cattered in the street
Sh[A]ines like a thousand diamond r[E]ings
INTERLUDE:
[Bm] [A] [Em] [G] [A] [D]  
 
 |---------------------------------------------------------------------------------------5-|
 |-------------------------------------------------------------------------------------7---|
 |-----------------------------------------------------------------------------------7-----|
 |-----------4-4----4-5-4-4/2-2-2-----2-4-5---4-5-2------2-0-----------------------7-------|
 |-------0-2-------------------------------------------------2-0--5-5--0-0-2-4---5---------|
 |-0-2-3---------------------------------------------------------3-------------------------|

VERSE 2:
N[D]eon signs above the old mo-t[G]els,
w[A]arehouse stores and strip malls, houses spr[G]awled across the h[D]ills
The s[D]unset's a bird with wings made out of f[G]ire
P[A]arking lots turn to gold as it gl[G]ides across the s[D]ky
And e[D]very night from 6:00 to 6:0[G]5
The d[A]esert dirt shimmers like a s[G]ea of waterm[D]elon light
CHORUS:
[Bm]Even the broken glass s[F#m]hattered in the street
[A]Shines like a thousand diamond r[E]ings
OUTRO:
[Bm] [A] [Em] [G] [A] [Bm]  
 
 |-----------------------------------------------------------------------------------|
 |-----------------------------------------------------------------------------------|
 |-----------------------------------------------------------------------------------|
 |-----------4-4----4h5p4/2--------------------2-----------------------------2-------|
 |-------0-2----------------5-5-5p4-4-4----4-5---5-4-4/2-2-2-----2-0-------0-------2-|
 |-0-2-3-------------------------------------------------------------3-3-------------|

[Bm] [A] [Em] [G] [A] [Bm]  
 
 |---------------------------------------------------------|
 |---------------------------------------------------------|
 |-----2---------------------------------------------------|
 |-4-5---5-4-4p2-------------------------------------------|
 |--------------4-4----------------------------(0)------2--|
 |-----------------------3-2-0------------(3)--------------|

[Bm] [A] [Em] [G] [A] [D]  
 
 |---------------------------------------------------------------------(5)-|
 |-------------------------------------------------------------------(7)---|
 |-----------------------------------------------------------------(7)-----|
 |---------------------------4b-2-2-------2-4-5---(5)-(4)-(2)----(7)-------|
 |-2-4-5---5-4-2-2p0-------------------------------------------(5)---------|
 |-------------------2-2---------------------------------------------------|
 [FADE----------------------------------------------]


Important: The song above is NOT stored on the Chordie server. The original song is hosted at www.azchords.com. Chordie works as a search engine and provides on-the-fly formatting. Chordie does not index songs against artists'/composers' will. To remove this song please click here.

Text color:
Chord color:
Chord grids: 
Font size:    
Page size: 

A Bm D E Em F#m G
Rate #1 of 1 versions

Login - add to songbook

SHARE PAGE  



You need to log in to post comments