Guitar Tabs, Chords and Lyrics
Server problems seems to be fixed. Chordie has been experiencing problems with songs disappearing. These issues now seems to be fixed, but still verifying the fix. If you find anything strange, please email admin@chordie.com.


Bury Me Here  The Handsome Family

[Am]  
D[Am]own that foggy ro[C]ad
Slow c[G]entipedes cr[C]awl
Pl[G]ump blackberries f[C]all
and the gr[Dm]ound is d[E]ark as bl[Am]ood
D[Am]own that foggy ro[C]ad
The m[G]oon burns red as fl[C]ame,
We[G]eds snap in the r[C]ain,
Dogs are dr[Dm]agged off i[E]n the flo[Am]od
B[Am]ury me h[C]ere in the s[Am]ilvery m[F]ist,
Bury me h[Am]ere with the sp[F]id[E]ers and f[Am]ish
[Am] [C] [G] [C] [G] [C] [Dm] [E] [Am]  
 
 |-----------------------5/7---7/8---8/7---7/10----10-10/8--8/10--10/12--12/17-------|
 |-5--------5-6-5--------------------------------------------------------------17----|
 |-------------------5-4----------------------------------------------------------17-|
 |-----------------------------------------------------------------------------------|
 |-----------------------------------------------------------------------------------|
 |-----------------------------------------------------------------------------------|

D[Am]own that foggy r[C]oad
bl[G]ack bears crawl to sl[C]eep
tr[G]ee sap slowly se[C]eps
and the s[Dm]unrise n[E]ever c[Am]omes
B[Am]ury me h[C]ere in the s[Am]ilvery m[F]ist,
Bury me h[Am]ere with the sp[F]id[E]ers and f[Am]ish
[Am] [C] [Am] [F] [Am] [F] [E] [Am]  
 
 |--------------------------------------------------------------------|
 |--------------------------------------------------------------------|
 |--------------------------------------------------------------------|
 |----------------------------3------3-2-----2-3----------------------|
 |----------------2-3--------------3-------5--------2-----------------|
 |-5---0--5-3---5-----5-0-1------------------------------0-5------0-5-|[FADE] 


Important: The song above is NOT stored on the Chordie server. The original song is hosted at www.azchords.com. Chordie works as a search engine and provides on-the-fly formatting. Chordie does not index songs against artists'/composers' will. To remove this song please click here.

Text color:
Chord color:
Chord grids: 
Font size:    
Page size: 

Am C Dm E F G
Rate #1 of 1 versions

Jango Player

Login - add to songbook

SHARE PAGE  



You need to log in to post comments