Guitar Tabs, Chords and Lyrics
Server problems seems to be fixed. Chordie has been experiencing problems with songs disappearing. These issues now seems to be fixed, but still verifying the fix. If you find anything strange, please email admin@chordie.com.


Down in the Valley of Hollow Logs  The Handsome Family

[D] [A] [D]  
 
 |--------------------------------|
 |--------------------------------|
 |--------------2---2-------------|
 |----------------4---4----0-2b-0-|
 |-0--2-4-5-----------------------|
 |--------------------------------|

D[G]own in the Valley of H[D]ollow Logs
Two lovers lay in the w[A]eeds
S[G]afe in the net of their sw[D]eaty arms
Safe from the w[A]ind in the tr[D]ees
My l[G]ove, said the boy, you're the cl[D]ear blue sky
You're the air I gulp to br[A]eathe
I f[G]eel you rushing thr[D]ough my veins
Like the wind rushing thr[A]ough the tr[D]ees
My l[G]ove, said the girl, you're my s[D]ecret pearl
You're a string of tiny glass b[A]eads
You're a b[G]urning star I k[D]eep in a jar
Safe from the w[A]ind in the tr[D]ees
[G] [D] [A] [G] [D] [A] [D]  
 
 |-----------------------------------------------------------------------------------2-----2-3-2--------------|
 |-----3-5-3---------------------------------------------------------------------3-5---3---------3------------|
 |-2/4-------4--0-2------------------------2---------------------4-4--4-4-2-0--2-------------------2-0--------|
 |-------------------0-2b-0---------0--0/4---4-2-------------------------------------------------------4-2b-0-|
 |----------------------------0-2-4---------------0-2b-0---0--------------------------------------------------|
 |-----------------------------------------------------------4------------------------------------------------|

D[G]own in the Valley of H[D]ollow Logs
Two lovers lay back in the w[A]eeds
L[G]istening to the howl of h[D]unting dogs
And the wind howling thr[A]ough the tr[D]ees
Then [G]insects ran for the [D]underbrush
As the wind filled the air with dead l[A]eaves
And [G]every stone turned sl[D]owly to dust
As the wind tore thr[A]ough the tr[D]ees
[G] [D] [A] [G] [D] [A] [D]  
 
 |-------------------------------------------------------------------------------------------|
 |-------------------------------------------------------------------------------------------|
 |-------------------------------------------------------------------------------------------|
 |-9--9-9-9-7----7----------------7-------------9--9-9-9-7-----7-----------------------------|
 |------------10-----9---------------9-7----7--------------10-----9-----------9--7-----------|
 |---------------------10-----10------------------------------------10----10--------10----10-|

(Bass arr. for guitar)
So the yo[G]ung girl pierced her l[D]ily-white breast
Her blood poured over dark w[A]eeds
A s[G]ilver dagger through h[D]er burning heart
Cold as the w[A]ind in the tr[D]ees
Then the b[G]oy picked up that bl[D]oody knife
And stove it through his ch[A]est
Farew[G]ell, farewell to the w[D]ind and the trees
I'll die with the o[A]ne I love b[D]est

Important: The song above is NOT stored on the Chordie server. The original song is hosted at www.azchords.com. Chordie works as a search engine and provides on-the-fly formatting. Chordie does not index songs against artists'/composers' will. To remove this song please click here.

Text color:
Chord color:
Chord grids: 
Font size:    
Page size: 

A D G
Rate #1 of 1 versions

Login - add to songbook

SHARE PAGE  



You need to log in to post comments