Guitar Tabs, Chords and Lyrics
Server problems seems to be fixed. Chordie has been experiencing problems with songs disappearing. These issues now seems to be fixed, but still verifying the fix. If you find anything strange, please email admin@chordie.com.


I Know You Are There  The Handsome Family

INTRO:
[C]  
[C] [F] [C] [G] [C]  
 
 |-------5----------------------|
 |-5-6-8---8--------------------|
 |-------------7-5--5-5-5---4-5-|
 |------------------------7-----|
 |------------------------------|
 |------------------------------|

[C]  
VERSE 1:
When the r[C]ope of death str[F]angles
And dark w[C]aters roar and f[G]oam
When f[E]ear and trembling h[Am]old you
And the sl[F]imy g[G]rip pulls d[C]own
I kn[F]ow you are th[C]ere
VERSE 2:
When the p[C]ale starlight is f[F]ading
and s[C]orrow fills my h[G]eart
When d[E]ewdrops fall so sw[Am]eetly
on the gr[F]een green gr[G]ass at d[C]awn
CHORUS:
I kn[G]ow you are th[C]ere
I kn[E]ow you are t[Am]here
I kn[F]ow y[G]ou are th[C]ere
INTERLUDE:
[C] [F] [C] [G] [E] [Am] [F] [G] [C]  
 
 |-------5-----------------5-8-5-----|----------------------------------------|
 |-5-6-8---8---------5-6-8-------8---|----------------------------------------|
 |-------------7-5-----------------7-|-5-4------------------------------------|
 |-----------------------------------|-----6-5-3------------------------------|
 |-----------------------------------|-----------6-5-5h6p5-3--0-2-3-3-5-0-2-3-|
 |-----------------------------------|----------------------------------------|

VERSE 3:
When black f[C]ish swim ponds of s[F]ilver
Where jade w[C]aterlillies gr[G]ow
When d[E]evils dance ar[Am]ound you
and the fl[F]ames of m[G]adness gr[C]ow
I kn[F]ow you are th[C]ere
VERSE 4:
When the s[C]oftly calling bl[F]uebird
Drifts thr[C]ough the lazy cl[G]oud
When wh[E]ite owls circle sc[Am]reaming
And gr[F]avel f[G]ills my m[C]outh
CHORUS:
I kn[G]ow you are th[C]ere
I kn[E]ow you are t[Am]here
I kn[F]ow y[G]ou are th[C]ere
I kn[G]ow you are th[C]ere
I kn[E]ow you are t[Am]here
I kn[F]ow y[G]ou are th[C]ere
OUTRO:
[C] [F] [Fm] [C]  
 
 |-------5----------------------|
 |-5-6-8---8--------------6-9-8-|
 |-------------7-5--4-5-7-------|
 |------------------------------|
 |------------------------------|
 |------------------------------| 


Important: The song above is NOT stored on the Chordie server. The original song is hosted at www.azchords.com. Chordie works as a search engine and provides on-the-fly formatting. Chordie does not index songs against artists'/composers' will. To remove this song please click here.

Text color:
Chord color:
Chord grids: 
Font size:    
Page size: 

Am C E F Fm G
Rate #1 of 1 versions

Login - add to songbook

SHARE PAGE  




You need to log in to post comments