Guitar Tabs, Chords and Lyrics
Server problems seems to be fixed. Chordie has been experiencing problems with songs disappearing. These issues now seems to be fixed, but still verifying the fix. If you find anything strange, please email admin@chordie.com.


In the Air  The Handsome Family

[A]  
I [A]am afraid of bridges, somet[D]imes I have to turn ar[A]ound
When I'm driving towards one, my he[D]art begins to po[A]und
Last night at the bridge to Johnsburg, I sw[D]erved down a dead end str[A]eet
I sat there shaking in an empty l[D]ot full of broken glass and we[A]eds
Then p[E]ast me in the darkness r[D]an four wild d[A]ogs
le[E]aping over abandoned tires, h[D]igh into the a[A]ir
In the a[E]ir, in the a[D]ir,
someday I will live in the a[A]ir
[A] [D] [A]  
 
 |-----------------------------------------------------|
 |-----------------------------------------------------|
 |---------------------------2-2--2--2-1---------------|
 |----------2-2-2--2-2-4--2--------------4-2-----------|
 |--------------------------------------------0-2-2b-0-|
 |-0-2-4-5---------------------------------------------|

[A] [D] [A]  
 
 |-------------------------------------------------------|
 |-------------------------------------------------------|
 |-------------------------------------------------------|
 |----------2-2-2--2-2-4--2------------------------------|
 |---------------------------2b-0--2b-0---------0-2-2b-0-|
 |-0-2-4-5------------------------------2-4-5------------|

[E] [D] [A]  
 
 |-----------------------------------------------------|
 |---------------------2-------------------------------|
 |----------4-4-4--4-4----4--2-2--2--2-1---------------|
 |---------------------------------------4-2-----------|
 |--------------------------------------------0-2-2b-0-|
 |-5-4-2-0---------------------------------------------|

[E] [D] [A]  
 
 |-----------------------------------------------------|
 |---------------------2-------------------------------|
 |----------4-4-4--4-4----4--2-2--2--2-1---------------|
 |---------------------------------------4-2-----------|
 |--------------------------------------------0-2-2b-0-|
 |-5-4-2-0---------------------------------------------|

In the a[E]ir, in the a[D]ir,
someday I will live in the a[A]ir
O[A]nce I loved a girl named Joan, her sk[D]in smelled just like falling sn[A]ow
One day she drove us off the road int[D]o a dead field of c[A]orn
She laughed and hit the gas as we bo[D]unced across the r[A]ows,
but I held onto the dashboard with [D]my eyes tightly cl[A]osed
Those w[E]ild dogs brought back that sm[D]ell of falling sn[A]ow
and the g[E]irl who lives in Johnsburg acr[D]oss a bridge I cannot [A]go
In the a[E]ir, in the a[D]ir,
someday I will live in the a[A]ir
In the a[E]ir, in the a[D]ir,
someday I will live in the a[E]ir
[A] 

Important: The song above is NOT stored on the Chordie server. The original song is hosted at www.azchords.com. Chordie works as a search engine and provides on-the-fly formatting. Chordie does not index songs against artists'/composers' will. To remove this song please click here.

Text color:
Chord color:
Chord grids: 
Font size:    
Page size: 

A D E
Rate #1 of 1 versions

Jango Player

Login - add to songbook

SHARE PAGE  




You need to log in to post comments