Guitar Tabs, Chords and Lyrics
Server problems seems to be fixed. Chordie has been experiencing problems with songs disappearing. These issues now seems to be fixed, but still verifying the fix. If you find anything strange, please email admin@chordie.com.


June Bugs  The Handsome Family

INTRO:
[A] [D] [A] [E] [A]  
 
 |-0-------9/10/9---------------------------|
 |-2----------------12-12--10---9--9/10--10-|
 |-2-------9/11/9---------------------------|
 |-2----------------12-12--11---9--9/11--11-|
 |-0----------------------------------------|
 |------------------------------------------|

VERSE:
I want to k[D]iss you in th[A]ickets and dr[E]ipping wet gl[F#m]ades
As the st[D]ars rub ag[A]ainst the d[E]ark skin of s[F#m]pace
Every pl[D]anet is t[A]urning and c[E]alling your n[F#m]ame
For h[E]undreds of miles the trees bend your w[E7]ay
CHORUS:
Because the gr[A]een buds are sw[D]elling
And J[A]une bugs are b[E]ack in the y[A]ard
[D] [A] [E] [A]  
 
 |-9/10/9---------------------------|
 |----------12-12--10---9--9/10--10-|
 |-9/11/9---------------------------|
 |----------12-12--11---9--9/11--11-|
 |----------------------------------|
 |----------------------------------|

VERSE:
I want to k[D]iss you in gr[A]een groves and e[E]choing c[F#m]aves
I want to f[D]all through the tr[A]eetops and dr[E]ift across l[F#m]akes
The w[E]ind's in the oak trees, it's been raining for d[E7]ays
CHORUS:
Because the gr[A]een buds are sw[D]elling
And J[A]une bugs are cr[E]awling the y[A]ard
INTERLUDE:
[D] [A] [E] [F#m] [D] [A] [E] [F#m] [D] [A] [E] [F#m] [E] [E7]  
 
 |------------------------------------------------------------------------------------------------------------|
 |------------------------------------------------------------------------------------------------------------|
 |------------------------------------------------------------------------------------------------------------|
 |------------------------------------------------------------------------------------------------------------|
 |-4-5--4-2---------------2h4-4---/5--4-2--------------------5--4-2------------2-2/4--------------2-4-5---4-2-|
 |-----------5-2-0---2--4------------------5-2-0---2--4-2-----------5-2-0---2----------4-2-0---0--------------|

CHORUS:
Yes, the gr[A]een buds are sw[D]elling
And J[A]une bugs are b[E]ack in the y[A]ard
[D] [A] [E] [A]  
 
 |-9/10/9---------------------------|
 |----------12-12--10---9--9/10--10-|
 |-9/11/9---------------------------|
 |----------12-12--11---9--9/11--11-|
 |----------------------------------|
 |----------------------------------|

VERSE:
H[D]awk moths are s[A]ipping the n[E]ight-blooming [F#m]rose
A h[D]oney as sw[A]eet as the m[E]oon's sugar g[F#m]low
The le[D]aves of the a[A]pple tree wh[E]ispering [F#m]low
The st[E]ars are on fire, the nightingales m[E7]oan
CHORUS:
Because the gr[A]een buds are sw[D]elling
And J[A]une bugs are cr[E]awling the y[A]ard
[D] [A] [E] [A]  
 
 |-9/10/9---------------------------|
 |----------12-12--10---9--9/10--10-|
 |-9/11/9---------------------------|
 |----------12-12--11---9--9/11--11-|
 |----------------------------------|
 |----------------------------------| 


Important: The song above is NOT stored on the Chordie server. The original song is hosted at www.azchords.com. Chordie works as a search engine and provides on-the-fly formatting. Chordie does not index songs against artists'/composers' will. To remove this song please click here.

Text color:
Chord color:
Chord grids: 
Font size:    
Page size: 

A D E E7 F#m
Rate #1 of 1 versions

Jango Player

Login - add to songbook

SHARE PAGE  




You need to log in to post comments