Guitar Tabs, Chords and Lyrics
Server problems seems to be fixed. Chordie has been experiencing problems with songs disappearing. These issues now seems to be fixed, but still verifying the fix. If you find anything strange, please email admin@chordie.com.


Lie Down  The Handsome Family

[Em]  
[Em] [F#/G] [G] [C] [B] [Em] [F#/G] [G] [C] [Em]  
 
 |----------------------|-----------------------|
 |----------------------|-----------------------|
 |----------------------|-----------------------|
 |-------------------2-1|2----------------------|
 |------------0--2-3----|--2---------0-2-3------|
 |0---2----3------------|----3--2--3-------3-2-0|

VERSE 1:
[Em]Tuesday[F#/G] at d[G]awn Michael's gl[C]asses washed as[B]hore
[Em]with a styro[F#/G]foam b[G]ox and t[C]wo broken o[Em]ars.
[Em]He'd been digging [F#/G]for cl[G]ams in the mu[C]ddy swamp we[B]eds
when he [Em]heard the [F#/G]salt w[G]ater wh[C]isper to [Em]him,
CHORUS:
"Lie d[C]own, lie down in the d[G]ark rolling sea.
When you g[D]et to the bottom we'll k[Am]iss you to sleep."
"Lie d[C]own, lie down in the d[G]ark rolling sea.
When you g[D]et to the bottom we'll k[Em]iss you to sleep."
INTERLUDE:
[Em] [F#/G] [G] [C] [B] [Em] [F#/G] [G] [C] [Em]  
 
 |----------------------|-----------------------|
 |----------------------|-----------------------|
 |----------------------|-----------------------|
 |-------------------2-1|2----------------------|
 |------------0--2-3----|--2---------0-2-3------|
 |0---2----3------------|----3--2--3-------3-2-0|

[Em] [F#/G] [G] [C] [B] [Em] [F#/G] [G] [C] [Em]  
 
 |------------------------|--------------------------|
 |------------------------|--------------------------|
 |------------------------|---------2--4-4-4-5-------|
 |----------------0-2-4-4-|--5p4h5-------------5-4-2-|
 |----------0-2-3---------|--------------------------|
 |0---2---3---------------|--------------------------|

VERSE 2:
[Em]Michael threw [F#/G]his gl[G]asses in the c[C]old green w[B]ater.
[Em]Hermit [F#/G]crabs r[G]an as he d[C]ove down u[Em]nder.
[Em]One of[F#/G] his sh[G]oes b[C]obbed on the w[B]aves.
[Em]Sea[F#/G]gulls c[G]ircled 't[C]il it finally [Em]sank.
CHORUS:
"Lie d[C]own, lie down in the d[G]ark rolling sea.
When you g[D]et to the bottom we'll k[Am]iss you to sleep."
"Lie d[C]own, lie down in the d[G]ark rolling sea.
When you g[D]et to the bottom we'll k[Em]iss you to sleep."
[Em] [F#/G] [G] [C] [B] [Em] [F#/G] [G] [C] [Em]  
 
 |----------------------|-----------------------|
 |----------------------|-----------------------|
 |----------------------|-----------------------|
 |-------------------2-1|2----------------------|
 |------------0--2-3----|--2---------0-2-3------|
 |0---2----3------------|----3--2--3-------3-2-0|

[Em] 

Important: The song above is NOT stored on the Chordie server. The original song is hosted at www.azchords.com. Chordie works as a search engine and provides on-the-fly formatting. Chordie does not index songs against artists'/composers' will. To remove this song please click here.

Text color:
Chord color:
Chord grids: 
Font size:    
Page size: 

Am B C D Em F#/G G
Rate #1 of 1 versions

Jango Player

Login - add to songbook

SHARE PAGE  




You need to log in to post comments