Guitar Tabs, Chords and Lyrics
Server problems seems to be fixed. Chordie has been experiencing problems with songs disappearing. These issues now seems to be fixed, but still verifying the fix. If you find anything strange, please email admin@chordie.com.


Little Sparrows  The Handsome Family

[Intro] 
[G] [C] [G] [Em] [C] [G]  
 
 e|-/15\14/15----12\7---12---12/14/15---------------------------|
 B|-----------------------------------------------12-15-12------|
 G|-/16\14/16----12\7---12---12/14/16------12--14---------14-12-|
 D|-------------------------------------12----------------------|
 A|-------------------------------------------------------------|
 E|-------------------------------------------------------------|

[Verse 1] 
[G]Oh, you little sparrows on a sw[C]aying br[G]anch
S[Em]inging to the cars up on the o[C]verp[G]ass
[Fill 1] 
 
 e|-15-12-------------------|
 B|-------15-12-------------|
 G|-------------14-12-14/16-|
 D|-------------------------|
 A|-------------------------|
 E|-------------------------|

[Cborus 1] 
[G]When you [Bm]fly aw[C]ay from h[G]ere
[G]Take me w[Am]ith you wh[C]en you [G]go
[Solo 1] 
[G] [C] [G] [Em] [C] [G]  
 
 e|---------------------------------------------------7-------7-10----------------7-10-7----7--15----------|
 B|----------------15-----12----------------15-----8--8--8-10------10---8\5----8---------10-------12\10/12-|
 G|-------11-12/14----14-----14\12p11h12/14----14--9--7-----------------9\5--7-----------------------------|
 D|-12/14------------------------------------------9--------------------9\5--------------------------------|
 A|--------------------------------------------------------------------------------------------------------|
 E|--------------------------------------------------------------------------------------------------------|

[G] [Bm] [C] [G] [Am] [C] [G]  
 
 e|-------------------------------------------------|
 B|-12--12/10---------------------------------------|
 G|-------------12-------------------------12-12/16-|
 D|----------------12---12/14----14----12-----------|
 A|-------------------------------------------------|
 E|-------------------------------------------------|

[Bridge 1] 
[D]A herd of antelope, a s[C]ea of redwood tr[G]ees
Sch[Am]ools of shining fish and a th[D]ousand buzzing b[D7]ees
[Verse 2] 
[G]Over winter parking lots the p[C]assing ge[G]ese
R[Em]ising in the air little d[C]andelion s[G]eeds
[Fill 2] 
 
 e|-7----------------7-------|
 B|-8-------8-7-8-10---10----|
 G|-7----------------------7-|
 D|--------------------------|
 A|--------------------------|
 E|--------------------------|

[Cborus 2] 
Wh[G]en you [Bm]fly aw[C]ay from h[G]ere
[G]Please don't l[Am]eave me wh[C]en you [G]go
[Fill 3] 
 
 e|-15-12----------------------------------------|
 B|-------15-12----------------12-15-12----------|
 G|-------------14-12-14-12-14----------14-12-11-|
 D|----------------------------------------------|
 A|----------------------------------------------|
 E|----------------------------------------------|

[Bridge 2] 
[D]If I were Jonah tossed int[C]o the raging s[G]ea
I wo[Am]uld not fear the whale that came to sw[D]allow [D7]me
[Solo 2] 
[G] [C] [G] [Em] [C] [G]  
 
 e|---------------------------------------------------------15------------------------------|
 B|----------13/17\15------10h12-----------12-----13---15------15/12\15---15-12-------------|
 G|-12/14/16-----------------------12---12----12--------------------------------14-12-14/16-|
 D|----------10/14\12---12------------------------10---12-----------------------------------|
 A|-10/12/14--------------------------------------------------------------------------------|
 E|-----------------------------------------------------------------------------------------|

[G] [Bm] [C] [G] [Am] [C] [G]  
 
 e|-----15------------------------------------------------------------------|
 B|-15--15--15---13--------------12----------15-12-------------12---15---20-|
 G|-16------14---12--12-------12----12-------------14--12-12----------------|
 D|------------------12----12----------14-----------------------------------|
 A|-------------------------------------------------------------------------|
 E|-------------------------------------------------------------------------|

[Verse 3] 
[G]Oh, you paper cups rolling d[C]own the windy str[G]eet
[Em]Oh, you little ants winding thr[C]ough the tangled we[G]eds
[Fill 4] 
 
 e|-7----10---14---15-|
 B|-8----12---15---15-|
 G|-7----12---14---16-|
 D|-------------------|
 A|-------------------|
 E|-------------------|

[Cborus 3] 
Wh[G]ere you're [Bm]going [C]I don't ca[G]re
[G]Take me w[Am]ith you wh[C]en you [G]go
[Outro] 
[G] [Bm] [C] [G]  
 
 e|-7-----------10--------10----------------|
 B|-8----10--12-10-----12-10-10----8--------|
 G|-7----11--12--------12----11----9---12---|
 D|--------------------------12--------12---|
 A|-----------------------------------------|
 E|-----------------------------------------|

[D] [C] [G]  
 
 e|------------------------------------------------------------------------------------------------------15-|
 B|------------------15-12---------------------------------------------------------------------------12--12-|
 G|---------12-14-12---------14-12-14---------12-------------------12-14----------------------12-----12-----|
 D|-12-14-------------------------------12-14----14-12-14-12----12--------14-12----12-14------12------------|
 A|----------------------------------------------------------15-----------------15-------15-----------------|
 E|---------------------------------------------------------------------------------------------------------| 


Important: The song above is NOT stored on the Chordie server. The original song is hosted at www.azchords.com. Chordie works as a search engine and provides on-the-fly formatting. Chordie does not index songs against artists'/composers' will. To remove this song please click here.

Text color:
Chord color:
Chord grids: 
Font size:    
Page size: 

Am Bm C D D7 Em G
Rate #1 of 1 versions

Login - add to songbook

SHARE PAGE  




You need to log in to post comments