Guitar Tabs, Chords and Lyrics
Server problems seems to be fixed. Chordie has been experiencing problems with songs disappearing. These issues now seems to be fixed, but still verifying the fix. If you find anything strange, please email admin@chordie.com.


Love Is Like  The Handsome Family

[A]  
L[A]ove is like a white [G#m]moth sipping te[G]ars from sleeping b[F#]irds
An [F]asteroid in flames t[E]umbling to Earth
 
 |-----------------------|
 |-----------------------|
 |----------1--2-----1-2-| [Fill 1]
 |-----------------------|
 |-2--4--5---------------|
 |-----------------------|

R[A]aindrops sliding d[F]own the st[A]ems of orange le[F]aves
The fl[A]icker of a str[F]ange light f[A]ar out across the s[F]ea
[A]  
L[A]ove is like a black [G#m]fly b[G]uzzing in the s[F#]un
C[F]ircling and landing, d[E]ancing like it's drunk
[Fill 1] 
[A]All around the r[F]ed apples sc[A]attered on the l[F]awn
F[A]allen in the f[F]ury of l[A]ast night's thunderst[F]orm
[A]  
L[A]ove is like the [G#m]hole t[G]orn right through the r[F#]oof
When that o[F]ld sugar pine came cr[E]ashing down last night
[Fill 1] 
And ab[A]ove the broken be[F]ams and the sh[A]attered ceiling t[F]iles
Y[A]ou can see st[F]arlight for the v[A]ery first t[F]ime
[A]  
[A] [G#m] [G] [F#] [F] [E]  
 
 |----------8-7---8-7-6---5-6-5-----------------------------------|
 |-----5-8--------------8-----------5-8-7---6-5---------6-5-------|
 |-5-7-------------------------------------------8-5--------7-----|
 |--------------------------------------------------------------5-|
 |----------------------------------------------------------------|
 |----------------------------------------------------------------|

[Syntb arr. for guitar] 
[Fill 1] 
[A] [F] [A] [F]  
 
 |-------8---10-8----10-12-----8--------|
 |-------------------------------8------|
 |-9-12----------------------------9----|
 |-----------------------------------12-|
 |--------------------------------------|

[Syntb arr. for guitar] [FADE----] 

Important: The song above is NOT stored on the Chordie server. The original song is hosted at www.azchords.com. Chordie works as a search engine and provides on-the-fly formatting. Chordie does not index songs against artists'/composers' will. To remove this song please click here.

Text color:
Chord color:
Chord grids: 
Font size:    
Page size: 

A E F F# G G#m
Rate #1 of 1 versions

Jango Player

Login - add to songbook

SHARE PAGE  



You need to log in to post comments