Guitar Tabs, Chords and Lyrics
Server problems seems to be fixed. Chordie has been experiencing problems with songs disappearing. These issues now seems to be fixed, but still verifying the fix. If you find anything strange, please email admin@chordie.com.


My Beautiful Bride  The Handsome Family

[C]  
 
 |-----------------------------|
 |----------------13-----------|
 |------12--12------12--12--12-|x2
 |----14--14--14------14--14---|
 |-15--------------------------|
 |-----------------------------|

O[C]ut in the heather where the s[F]un burns br[C]ight
she sw[G]ore she'd love me the r[F]est of her l[C]ife
But, my h[C]ands they shook as the n[F]oon bells ch[C]imed
so [G]at the last bell I sh[F]owed her my kn[C]ife
And I l[F]aid to rest my be[C]autiful bride
o[G]ut in the heather where the s[Dm]un burns bright
And I l[F]aid to rest my be[C]autiful bride
o[G]ut in the heather where the s[F]un burns br[C]ight
[C] [F] [C] [G] [F] [C]  
 
 |-8-7-8----8-7-8----8-7-8---8-7-8-----------------------------------|
 |-------8--------8--------6-------5---5h6p5-------------------------|
 |-------------------------------------------7--7-5-4--------5-5/7-5-|
 |-----------------------------------------------------5-5/7---------|
 |-------------------------------------------------------------------|
 |-------------------------------------------------------------------|

(Piano arr. for guitar)
N[C]ow all alone under the c[F]ool night s[C]ky
where l[G]ocusts scream and wh[F]ite moths f[C]ly
s[C]ilvery moonbeams fall [F]on her gr[C]ave
but tw[G]isting black vines have c[F]overed her n[C]ame
For I l[F]oved too much my be[C]autiful bride
and so g[G]ave her up to the c[Dm]ool night sky
For I l[F]oved too much my be[C]autiful bride
and so g[G]ave her up to the c[F]ool night s[C]ky
[F] [C] [G] [Dm]  
 
 |--------------------------------------------------------------------|
 |-6--5-6-8-6---5-6-8-5-----------------------------------------------|
 |------------------------7h9p7-5---4-5-7---5h7p5--4----------5-------|
 |-----------------------------------------------------5-5/7----7-----|
 |----------------------------------------------------------------8-5-|
 |--------------------------------------------------------------------|

(Piano arr. for guitar)
[F] [C] [G] [F] [C]  
 
 |------------------------------------------------------------------|
 |------------------------------------------------------------------|
 |------------------------------------------------------------------|
 |-5--------5---------5---------------------------------------------|
 |---8--7-8---8---7-8---7--5h7p5-3---2-3-5---3h5p3-2----------3-5-3-|
 |-----------------------------------------------------3-3--5-------|

(Piano arr. for guitar)

Important: The song above is NOT stored on the Chordie server. The original song is hosted at www.azchords.com. Chordie works as a search engine and provides on-the-fly formatting. Chordie does not index songs against artists'/composers' will. To remove this song please click here.

Text color:
Chord color:
Chord grids: 
Font size:    
Page size: 

C Dm F G
Rate #1 of 1 versions

Login - add to songbook

SHARE PAGE  



You need to log in to post comments