Guitar Tabs, Chords and Lyrics
Server problems seems to be fixed. Chordie has been experiencing problems with songs disappearing. These issues now seems to be fixed, but still verifying the fix. If you find anything strange, please email admin@chordie.com.


No One Fell Asleep Alone  The Handsome Family

[G]  
[G] [D] [C] [G] [Em] [C] [G] [Em] [C] [G] [D] [C] [G]  
 
 |-------------------------------------------------------------------------------|
 |-------------------------------------------------------------------------------|
 |------7-7--5--4-4---4-4--7-7--5-5--4-4---4-4--4-4-------------4--7-7--4--------|
 |-5-5-----------------------------------------------7-7--5-5-------------7--5-5-|
 |-------------------------------------------------------------------------------|
 |-------------------------------------------------------------------------------|

(Horn arr. for guitar)
I s[G]aw a d[D]eer l[C]imp acr[G]oss
A s[Em]upermarket p[C]arking l[G]ot
Last n[Em]ight as I drove h[C]ome from w[G]ork
Old men sle[D]eping [C]in the d[G]irt
[G] [D] [C] [G]  
 
 |-----------------|
 |---8-7--5-5------|
 |-4-----------7-7-|
 |-----------------|
 |-----------------|
 |-----------------|

(Horn arr. for guitar)
Ab[G]andoned b[D]uildings f[C]ull of sm[G]oke
Ch[Em]ildren jumping fr[C]om the r[G]oof
C[Em]ars in ditches le[C]aking bl[G]ood
Rivers f[D]ull of dr[C]owning b[G]ugs
[G] [D] [C] [G] [Em] [C] [G] [Em] [C] [G] [D] [C] [G]  
 
 |-------------------------------------------------------------------------------|
 |-----------5--7-8---8-8--7-5-------------------------------------8-7--5-5------|
 |-4-4--7-7---------------------7-5--4-4---4-4--4-4-------------4------------7-7-|
 |---------------------------------------------------7-7--5-5--------------------|
 |-------------------------------------------------------------------------------|
 |-------------------------------------------------------------------------------|

(Horn arr. for guitar)
But [G]as the s[D]un f[C]ell betw[G]een
The l[Em]eaning buildings a[C]nd the str[G]eet
The [Em]moment came 'tween d[C]ay and n[G]ight
Painted s[D]oft in g[C]olden l[G]ight
The cr[G]ooked str[D]eet sh[C]ining g[G]old
And [Em]no one fell asl[C]eep al[G]one
[Em]No one fell asl[C]eep al[G]one
No one f[D]ell asl[C]eep al[G]one
[G] [D] [C] [G] [Em] [C] [G] [Em] [C] [G] [D] [C] [G]  
 
 |---------------------------------------------------------------------------------|
 |------8-7--5--------------7-5----------------------------------------------------|
 |-4-4-----------7-7---4-4-------7-5--4-4---4-4--4-4-------------4--7-7--4---------|
 |-----------------------------------------------------7-7--5-5-------------7--5-5-|
 |---------------------------------------------------------------------------------|
 |---------------------------------------------------------------------------------|

(Horn arr. for guitar)

Important: The song above is NOT stored on the Chordie server. The original song is hosted at www.azchords.com. Chordie works as a search engine and provides on-the-fly formatting. Chordie does not index songs against artists'/composers' will. To remove this song please click here.

Text color:
Chord color:
Chord grids: 
Font size:    
Page size: 

C D Em G
Rate #1 of 1 versions

Login - add to songbook

SHARE PAGE  



You need to log in to post comments