Guitar Tabs, Chords and Lyrics
Server problems seems to be fixed. Chordie has been experiencing problems with songs disappearing. These issues now seems to be fixed, but still verifying the fix. If you find anything strange, please email admin@chordie.com.


Our Blue Sky  The Handsome Family

INTRO:
[A] [E] [D] [A] [E] [D] [A]  
 
 |-------------------------------------|
 |-------------------------------------|
 |-----------------------2-1-----------|
 |---------0-2--4b-2-2-------4-2-------|
 |-0-0-2-4-----------------------2b-0-0|
 |-------------------------------------|

VERSE 1:
[A]Why do you d[E]ream
of p[D]early white [A]gates
[A]high in the [E]air
where [D]no bird fl[A]ies
[A]no tree g[E]rows
bey[D]ond the s[A]ky
[F#m]Our bl[E]ue s[A]ky.
VERSE 2:
[A]Why do you d[E]ream
that w[D]orms and d[A]ogs
[A]hills and cl[E]ouds
are n[D]ot like [A]you?
[A]Burning [E]light
that n[D]ever d[A]ies,
[F#m]Our b[E]lue spinning s[A]ky.
CHORUS:
[D]Why do you leave
a t[A]rail of death
[E]air turns brown
[A]trees fall down
[D]burn green fields
and d[A]rive on by
[F#m]Our bl[E]ue s[A]ky
INTERLUDE:
[A] [E] [D] [A] [E] [D] [A] [E] [D] [A] [F#m] [E] [A]  
 
 |-----------------------------------------------------------------------------------|
 |-----------------------------------------------------------------------------------|
 |-----------------------------------------------------------------------------4-4-2-|
 |-2-0--------------------0-2-4b-2-2--2p0----------------------------------2-2-------|
 |-----4-2-2b-0-0---0-2-4----------------4-2-2bp0-------0-2-4--4-2-0-2b-0------------|
 |--------------------------------------------------2-2------------------------------|

VERSE 3:
[A]Could you love g[E]od
if he d[D]idn't love y[A]ou
[A]more than ri[E]vers
sn[D]akes or w[A]ind
[A]could you share he[E]aven
with bl[D]ack buzzing f[A]lies
[F#m]Our bl[E]ue spinning s[A]ky
VERSE 4:
[A]What if this dre[E]am
you dr[D]eam with p[A]igs
[A]you dream with d[E]irt
and t[D]his is h[A]ome
[A]is it so w[E]rong
to l[D]ove this lig[A]ht
[F#m]our b[E]lue s[A]ky
INTERLUDE:
[D] [A] [E] [A] [D] [A] [F#m] [E] [A]  
CHORUS:
[D]Why do you leave
a t[A]rail of death
[E]air turns brown
[A]trees fall down
[D]burn green fields
and d[A]rive on by
[F#m]Our bl[E]ue s[A]ky
[A] 

Important: The song above is NOT stored on the Chordie server. The original song is hosted at www.azchords.com. Chordie works as a search engine and provides on-the-fly formatting. Chordie does not index songs against artists'/composers' will. To remove this song please click here.

Text color:
Chord color:
Chord grids: 
Font size:    
Page size: 

A D E F#m
Rate #1 of 1 versions

Jango Player

Login - add to songbook

SHARE PAGE  



You need to log in to post comments