Guitar Tabs, Chords and Lyrics
Server problems seems to be fixed. Chordie has been experiencing problems with songs disappearing. These issues now seems to be fixed, but still verifying the fix. If you find anything strange, please email admin@chordie.com.


So Long  The Handsome Family

[D] [A] [D]  
 
 |---------------------------------------------|
 |------------10----10--10--10-----8---8-8---7-|
 |-----9-11-------11--11--11--11--9---9-9---7--|
 |-12------------------------------------------|
 |---------------------------------------------|
 |---------------------------------------------|

[D]  
So l[D]ong to my dog Snickers who a[G]te Christmas t[D]insel.
So long to Mr. Whiskers who ju[A]mped out of a window.
And to the f[D]amily of gerbils who ch[G]ewed out of their c[D]age
and the little brown rabbit I ran [A]over by mist[D]ake
So l[G]ong, so l[D]ong, I'll see you [A]on the other s[D]ide
So l[G]ong, so l[D]ong, I'll see you [A]on the other s[D]ide
[G]So long to the goldfish who a[D]te each others' tails
So long to the chipmunk tr[A]apped under the stairs
[D]So long to the rosebush[G] I never w[D]atered
And to whatever was inside that h[A]ole that I bricked [D]over
So l[G]ong, so l[D]ong, I'll see you [A]on the other s[D]ide
So l[G]ong, so l[D]ong, I'll see you [A]on the other s[D]ide
[D] [G] [D] [A]  
 
 |------------------------------------------------------------------------------|
 |------------10----------------------------------------------------------------|
 |-----9-11-----11p9--------------------------------------------------------6-6-|
 |-12------------------12-11-9----9-12-9-7--------------------------------------|
 |-----------------------------10------------------9----12--9-7---5-5/4-4-------|
 |-------------------------------------------10-12------------------------------|

[D] [G] [D] [D] [A]  
 [D]
 |--------------------------------------------------------------------------------|
 |------10---------------------------------------10----10--10--10-----8---8-8---7-|
 |-11-----11p9---------------12-12-/11------11-------11--11--11--11--9---9-9---7--|
 |-------------12-11-9----9-------------------------------------------------------|
 |---------------------10---------------------------------------------------------|
 |--------------------------------------------------------------------------------|

[G]So long to the seagull [D]I hit with a rock
So long to the squirrel I ac[A]cidentally shot
And to e[D]verything I burned with a m[G]agnifying l[D]ens
That long, lonely summer when [A]I was only t[D]en
So l[G]ong, so l[D]ong, I'll see you [A]on the other s[D]ide
So l[G]ong, so l[D]ong, I'll see you [A]on the other s[D]ide
[D] 

Important: The song above is NOT stored on the Chordie server. The original song is hosted at www.azchords.com. Chordie works as a search engine and provides on-the-fly formatting. Chordie does not index songs against artists'/composers' will. To remove this song please click here.

Text color:
Chord color:
Chord grids: 
Font size:    
Page size: 

A D G
Rate #1 of 1 versions

Jango Player

Login - add to songbook

SHARE PAGE  




You need to log in to post comments