Guitar Tabs, Chords and Lyrics
Server problems seems to be fixed. Chordie has been experiencing problems with songs disappearing. These issues now seems to be fixed, but still verifying the fix. If you find anything strange, please email admin@chordie.com.


The Last  The Handsome Family

G G/B x4
When you're t[G]oo [G/B]old
to h[C]it the t[G]imbers
but you st[C]ill rem[G]ember
the s[D]ound of the planks
When the s[G]now's [G/B]deep
in m[C]id Dec[G]ember,
You th[C]ink of Sept[G]ember
and a g[D]irl you once kn[G]ew
Well you're t[D]oo tired to sleep
and you're t[C]oo old to th[G]ink
So you p[C]our another dr[G]ink
and you sw[D]ear this one's the l[G]ast
[G] [G/B]  
[G] [C] [G] [C] [G] [D]  
 
 |-------------------------------------------------------------|
 |-------------------------------------------------------------|
 |-------------------------------------------------------------|
 |-------------------------------------------------------------|
 |-2-3--5--3-2--3-2----3--2----2------3--2----2---------2-3--5-|
 |------------------5-------5----5-3-------5----5-3--5---------|

[G] [C] [G] [C] [G] [D] [G]  
 
 |----------------------------------------------------------|
 |----------------------------------------------------------|
 |----------------------------------------------------------|
 |-2-4-5--4-2-----------------------------------------------|
 |------------5-3-2--3--2----2------3--5-3--2---------------|
 |------------------------5----5-3------------5-3--5--3-2-3-|

Well you're t[D]oo tired to sleep
and you're t[C]oo old to th[G]ink
So you p[C]our another dr[G]ink
and you sw[D]ear this one's the l[G]ast
G G/B x2
When the m[G]oon sh[G/B]ines
[C]in your w[G]indow
and you h[C]ear the w[G]ind blow
and you aw[D]ake with the past
Well, the m[G]oon s[G/B]he's
br[C]ight and y[G]ellow
and the ph[C]one says, "h[G]ello,"
but you w[D]ant to put it d[G]own
Well you're t[D]oo tired to sleep
and you're t[C]oo old to th[G]ink
So you p[C]our another dr[G]ink
and you sw[D]ear this one's the l[G]ast
and you sw[D]ear this one's the l[G]ast
and you sw[D]ear this one's the l[G]ast

Important: The song above is NOT stored on the Chordie server. The original song is hosted at www.azchords.com. Chordie works as a search engine and provides on-the-fly formatting. Chordie does not index songs against artists'/composers' will. To remove this song please click here.

Text color:
Chord color:
Chord grids: 
Font size:    
Page size: 

C D G G/B
Rate #1 of 1 versions

Jango Player

Login - add to songbook

SHARE PAGE  



You need to log in to post comments