Guitar Tabs, Chords and Lyrics
Server problems seems to be fixed. Chordie has been experiencing problems with songs disappearing. These issues now seems to be fixed, but still verifying the fix. If you find anything strange, please email admin@chordie.com.


The Sea Rose  The Handsome Family

[INTRO] 
[G]  
[VERSE 1] 
Wr[G]apped in the w[D]eeds of the sh[G]allows
[C] In the moon's drifting l[G]ight
C[C]alling from the c[G]old, wet rocks,
the sea ro-[D]ose of the l[G]ow tides
[VERSE 2] 
A p[G]assing sh[D]ip along the c[G]oast
[C] heard her sadly c[G]alling
and t[C]urned its sails [G]to [F#/G]the s[Em]ound,
of the r[G]ose, the s[D]ea rose c[G]alling
[REFRAIN] 
In the w[Em]aves, the w[D]aves she's c[G]alling
[CBORUS] 
L[D]onely, lonely, my he[C]art is d[G]ark
[C] the r[G]ocks lie cold ben[D]eath me
Come cl[C]oser, closer d[G]ar[F#/G]ling [Em]one
We'll m[G]arr[D]y in the s[G]eaweed
[SOLO] 
[G] [D] [G] [C] [G]  
 
 e|------------------------------------------------------------|
 B|------------------------------------------------------------|
 G|----------------------------------------5-5h7-5-------------|
 D|----------------------------------------5-5h7-5-------------|
 A|---------5-5------------5h7-5--------------------5h7--7-5---|
 E|-3---5h7------5h7-5-3----------5-7-8----------------------7-|

[C] [G] [F#/G] [Em] [G] [D] [G]  
 
 e|------------------------------------------------------------------|
 B|------------------------------------------------------------------|
 G|-------------5-5h7-5----------------------------------------------|
 D|-------------5-5h7-5----------------------------------------------|
 A|----------------------5h7--7-5-----------------------5-5----------|
 E|----5-7-8------------------------8---7----0-2-3--5h7------5h7-5-3-|

[VERSE 3] 
[G]On the passing sh[D]ip, a sailor b[G]oy,
[C] he heard the sea rose c[G]alling
and fr[C]om the bow he d[G]ove[F#/G] on d[Em]own
to the w[G]aves, the w[D]aves are f[G]alling
[REFRAIN] 
The w[Em]aves, the w[C]aves were f[G]alling
[VERSE 4] 
C[G]ome, c[D]ome my darling b[G]oy
[C] into my arms aw[G]aiting
D[C]own, down in the c[G]old, [F#/G]dark s[Em]ea
I'm w[G]ait[D]ing here to l[G]ove you
[CBORUS] 
[D]To her arms, her l[C]ovely [G]arms,
[C] the c[G]urrents pulled him spl[D]ashing,
b[C]ut her body was [G]only [F#/G]foaming w[Em]aves
and her v[G]oice [D] just water r[G]ushing
[OUTRO] 
In the w[Em]aves the s[C]ea rose f[G]alling
In the w[Em]aves, the w[D]aves, my d[G]arling
The w[Em]aves, the s[D]ea rose c[C]alling [G]

Important: The song above is NOT stored on the Chordie server. The original song is hosted at www.azchords.com. Chordie works as a search engine and provides on-the-fly formatting. Chordie does not index songs against artists'/composers' will. To remove this song please click here.

Text color:
Chord color:
Chord grids: 
Font size:    
Page size: 

C D Em F#/G G
Rate #1 of 1 versions

Jango Player

Login - add to songbook

SHARE PAGE  



You need to log in to post comments