Guitar Tabs, Chords and Lyrics
Server problems seems to be fixed. Chordie has been experiencing problems with songs disappearing. These issues now seems to be fixed, but still verifying the fix. If you find anything strange, please email admin@chordie.com.


Along the Way  The Honorary Title

 
 ----------------------------------------------------------------------------
 ----------------------------------------------------------------------------

Tuning: Standard
*NOTE: I'm not showing strumming (listen for changes)
INTRO
[Bb] [F/A] [C] [Dm]  
 
 e|-----6----------5--------8------5-----------------------------------------|
 B|-----6----------6--------8------6-----------------------------------------|
 G|-----7----------5--------9------7-----------------------------------------|
 D|-----8----------7--------10-----7-----------------------------------------|
 A|-----8----------8--------10-----5-----------------------------------------|
 E|-----6----------5--------8------------------------------------------------|

VERSE (0:19 - 0:38)
[Bb] [C] [F/A] [C]  
 
 e|----6-------8------5--------8---------------------------------------------|
 B|----6-------8------6--------8---------------------------------------------|
 G|----7-------9------5--------9---------------------------------------------|
 D|----8------10------7-------10---------------------------------------------|
 A|----8------10------8-------10---------------------------------------------|
 E|----6-------8------5--------8---------------------------------------------|

PRE-CHORUS part 1 (0:39 - 1:00)
[Bb] [F/A] [Dm] [Bb]  
 
 e|----6-------5--------5------6---------------------------------------------|
 B|----6-------6--------6------6---------------------------------------------|
 G|----7-------5--------7------7---------------------------------------------|
 D|----8-------7--------7------8---------------------------------------------|
 A|----8-------8--------5------8---------------------------------------------|
 E|----6-------5---------------6---------------------------------------------|

PRE-CHORUS part 2 ("it's hell to need someone")
[Bb] [C] [F/A] [Bb] [C]  
 
 e|----6-------8-------5--------6------8-------------------------------------|
 B|----6-------8-------6--------6------8-------------------------------------|
 G|----7-------9-------5--------7------9-------------------------------------|
 D|----8------10-------7--------8-----10-------------------------------------|
 A|----8------10-------8--------8-----10-------------------------------------|
 E|----6-------8-------5--------6------8-------------------------------------|

"hell" "some" "one"
CHORUS (play this twice)
[F] [Bb] [C] [Bb]  
 
 e|----1-------1------0-------1----------------------------------------------|
 B|----1-------3------1-------3----------------------------------------------|
 G|----2-------3------0-------3----------------------------------------------|
 D|----3-------3------2-------3----------------------------------------------|
 A|----3-------1------3-------1----------------------------------------------|
 E|----1--------------0------------------------------------------------------|

-Now back to verse and pre-chorus part 1
PRE-CHORUS part 2 is slightly longer this time (1:58-2:10)
[Bb] [C] [F/A] [Bb] [C] [F/A] [C] [Dm]  
 
 e|--6-----8----5------6-----8----5------8----5------------------------------|
 B|--6-----8----6------6-----8----6------8----6------------------------------|
 G|--7-----9----5------7-----9----5------9----7------------------------------|
 D|--8----10----7------8----10----7-----10----7------------------------------|
 A|--8----10----8------8----10----8-----10----5------------------------------|
 E|--6-----8----5------6-----8----5------8-----------------------------------|

"hell""some""one" "hell""some""one" "oh" "oh"
-Now back to chorus again (2:13 - 2:42)
BRIDGE part 1
-You can either do the strumming or do the picking
on the D, G, and B strings.
-After the "picking/ single strum part", play these same chords
with regular strumming.
[F] [Bb] [C] [Bb] [C]  
 
 e|---1-------6-------8-------6-------8--------------------------------------|
 B|---1-------6-------8-------6-------8--------------------------------------|
 G|---2-------7-------9-------7-------9--------------------------------------|
 D|---3-------8------10-------8------10--------------------------------------|
 A|---3-------8------10-------8------10--------------------------------------|
 E|---1-------6-------8-------6-------8--------------------------------------|

SOLO (play this twice)
 
 e|--------------------------------------------------------------------------|
 B|--------------------------------------------------------------------------|
 G|-0-2-0---2~-0-2-0-3-3-2-0-0-2-0---2~-0-2-0-3-3-0--------------------------|
 D|-------3------------------------3----------------3-2-0-2-3-3-2-0----------|
 A|-----------------------------------------------------------------3--------|
 E|--------------------------------------------------------------------------|
 e|--------------------------------------------------------------------------|
 B|--------------------------------------------------------------------------|
 G|-7-7-7-7/9-9-9-9/10-10-10-10-10-10-10-10----------------------------------|
 D|-x-x-x-x/x-x-x-x/x--x--x--x--x--x--x--x-----------------------------------|
 A|-5-5-5-5/7-7-7-7/8--8--8--8--8--8--8--8-----------------------------------|
 E|--------------------------------------------------------------------------|

-After the solo, he plays some notes higher up on the neck BUT i don't know that part.
just go back to the chords in the bridge for the rest of the song.
Those chords and pattern is: F, Bb, C, Bb, C
| / slide up
| ~ vibrato
| x Mute note
============================================================================

Important: The song above is NOT stored on the Chordie server. The original song is hosted at www.azchords.com. Chordie works as a search engine and provides on-the-fly formatting. Chordie does not index songs against artists'/composers' will. To remove this song please click here.

Text color:
Chord color:
Chord grids: 
Font size:    
Page size: 

Bb C Dm F
Rate #1 of 5 versions

Jango Player

Login - add to songbook

SHARE PAGE  




You need to log in to post comments