Guitar Tabs, Chords and Lyrics
Login is temporarily disabled for some users. Do not panic. Will be back in an hour or two. DO NOT REREGISTER!!


Mr. Maker   The Kooks

 
 e[---------------------/--------------------------------------------------]
 B[---------------------/--------------------------------------------------]
 G[---------------------/--------------------------------------------------]
 D[---7-7---------------/-----7----------------7-9b11~~~~~~~~~~~--7--------]
 A[-9-----10-10-9-9-7-7-/-7h9---7----------7h9-------------------7--10-9-7-]
 E[---------------------/---------10-7-10----------------------------------]

 


 


 Gtr 2


 

 
 [----------------------/-D----------Bm---------------F#m--------A-G-F#m-Em]

 


 


 Gtr 1


 

 
 e[----------------------------10-------------------------------]
 B[-------------------------------------------------------------]
 G[-------------------------------------------------------------]
 D[-----7---------------7-9b11~~~~~~~~~~~~~~~~~~~~---7----------]
 A[-7h9---7---------7h9---------------------------7h9--10-9-7-9~]
 E[---------10-7-10---------------------------------------------]

 


 


 Gtr 2


 

 
 [--D----------Bm---------------F#m-------------------A-G-F#m-Em]


Important: The song above is NOT stored on the Chordie server. The original song is hosted at www.azchords.com. Chordie works as a search engine and provides on-the-fly formatting. Chordie does not index songs against artists'/composers' will. To remove this song please click here.

This song is displayed as text-only. Transposing and tuning is only available for chordpro-songs.
Rate #1 of 11 versions

Jango Player

Login - add to songbook

SHARE PAGE  




You need to log in to post comments