Guitar Tabs, Chords and Lyrics
Login is temporarily disabled for some users. Do not panic. Will be back in an hour or two. DO NOT REREGISTER!!


Runaway  The Kooks

[Intro] 
[Em] [Bm] [D] [G]  
 
 e|----------x-x--2-2-x-2-2-x-x--2-2-2-2-2-x--3-3-x-3---------|
 B|----------x-x--3-3-x-3-3-x-x--3-3-3-3-3-x--0-0-x-0---------|
 G|----------x-x--4-4-x-4-4-x-x--2-2-2-4-2-x--0-0-x-0---------|
 D|-0h2-0h2--x-x--4-4-x-4-2-x-x--0-0-0-0-0-x--0-0-x-0------2--|
 A|----------x-x--2-2-x-2-4-x-x--x-x-x-x-x-x--x-x-x-x------2--|
 E|----------x-x--x-x-x-x-x-x-x--x-x-x-x-x-x--3-3-x-3--3-2----|

U D U U D U U D U D D U D U D U U D U
[Verse 1] 
"Girl I wanna be good to you..."
[Em] [Bm] [D] [G]  
 
 e|----------x-x--2-2-x-2-2-x-x--2-2-2-2-2-x--3-3-x-3---------|
 B|----------x-x--3-3-x-3-3-x-x--3-3-3-3-3-x--0-0-x-0---------|
 G|----------x-x--4-4-x-4-4-x-x--2-2-2-2-2-x--0-0-x-0---------|
 D|-0h2-0h2--x-x--4-4-x-4-4-x-x--0-0-0-0-0-x--0-0-x-0------2--|
 A|----------x-x--2-2-x-2-2-x-x--x-x-x-x-x-x--x-x-x-x------2--|
 E|----------x-x--x-x-x-x-x-x-x--x-x-x-x-x-x--3-3-x-3--3-2----|

U D U U D U U D U D D U D U D U U D U
"I need some time in the countryside, I wanna feel so brand new"
[Em] [Bm] [A4] [Em]  
 
 e|----------x-x--2-2-x-2-2-x-x--0-0-0-0-0-x--0-0-0-0-0-0-0-x-|
 B|----------x-x--3-3-x-3-3-x-x--3-3-3-3-3-x--0-0-0-0-0-0-0-x-|
 G|----------x-x--4-4-x-4-4-x-x--2-2-2-2-2-x--0-0-0-0-0-0-0-x-|
 D|-0h2-0h2--x-x--4-4-x-4-4-x-x--2-2-2-2-2-x--2-2-2-2-2-2-2-x-|
 A|----------x-x--2-2-x-2-2-x-x--0-0-0-0-0-x--2-2-2-2-2-2-2-x-|
 E|----------x-x--x-x-x-x-x-x-x--x-x-x-x-x-x--0-0-0-0-0-0-2-x-|

U D U U D U U D U D D U D U D D D D U U U D U
[Cborus] 
"Why don't we runaway?..."
[Bm] [A4] [Em] [D] [G]  
 
 e|--2-2-2-x--0-x--0-0-0-0-0-0-0-x--2-2-2-2-2-x--3-3-x-3-3-x-x-|
 B|--3-3-3-x--3-x--0-0-0-0-0-0-0-x--3-3-3-3-3-x--0-0-x-0-0-x-x-|
 G|--4-4-4-x--2-x--0-0-0-0-0-0-0-x--2-2-2-2-2-x--0-0-x-0-0-x-x-|
 D|--4-4-4-x--2-x--2-2-2-2-2-2-2-x--0-0-0-0-0-x--0-0-x-0-0-x-x-|
 A|--2-2-2-x--0-x--2-2-2-2-2-2-2-x--x-x-x-x-x-x--x-x-x-x-x-x-x-|
 E|--x-x-x-x--x-x--0-0-0-0-0-0-2-x--x-x-x-x-x-x--3-3-x-3-3-x-x-|

U U D U U D U U D U U D D D D D U D U D U U D U U D U
[Verse 2] 
"I see your name on the walls again..."
[Em] [Bm] [D] [G]  
 
 e|----------x-x--2-2-x-2-2-x-x--2-2-2-2-2-x--3-3-x-3---------|
 B|----------x-x--3-3-x-3-3-x-x--3-3-3-3-3-x--0-0-x-0---------|
 G|----------x-x--4-4-x-4-4-x-x--2-2-2-2-2-x--0-0-x-0---------|
 D|-0h2-0h2--x-x--4-4-x-4-4-x-x--0-0-0-0-0-x--0-0-x-0------2--|
 A|----------x-x--2-2-x-2-2-x-x--x-x-x-x-x-x--x-x-x-x------2--|
 E|----------x-x--x-x-x-x-x-x-x--x-x-x-x-x-x--3-3-x-3--3-2----|

U D U U D U U D U D D U D U D U U D U
"Dangle me from your wristchain..."
[Em] [Bm] [D] [Em] [G]  
 
 e|----------x-x--2-2-x-2-2-x-x--2-2-2-2-2-x--0-0--3-3-3-3-3-0-x-3-x-|
 B|----------x-x--3-3-x-3-3-x-x--3-3-3-3-3-x--0-0--0-0-0-0-0-0-x-0-x-|
 G|----------x-x--4-4-x-4-4-x-x--2-2-2-2-2-x--0-0--0-0-0-0-0-0-x-0-x-|
 D|-0h2-0h2--x-x--4-4-x-4-4-x-x--0-0-0-0-0-x--2-2--0-0-0-0-0-0-x-0-x-|
 A|----------x-x--2-2-x-2-2-x-x--x-x-x-x-x-x--2-2--x-x-x-x-x-x-x-x-x-|
 E|----------x-x--x-x-x-x-x-x-x--x-x-x-x-x-x--0-0--3-3-3-3-3-3-x-3-x-|

U D U U D U U D U D D U D U D U U D D U U U U U D U
[Cborus] 
"Why don't we runaway?..."
[Bm] [A4] [Em] [D] [G]  
 
 e|--2-2-2-x--0-x--0-0-0-0-0-0-0-x--2-2-2-2-2-x--3-3-x-3-3-x-x-|
 B|--3-3-3-x--3-x--0-0-0-0-0-0-0-x--3-3-3-3-3-x--0-0-x-0-0-x-x-|
 G|--4-4-4-x--2-x--0-0-0-0-0-0-0-x--2-2-2-2-2-x--0-0-x-0-0-x-x-|
 D|--4-4-4-x--2-x--2-2-2-2-2-2-2-x--0-0-0-0-0-x--0-0-x-0-0-x-x-|
 A|--2-2-2-x--0-x--2-2-2-2-2-2-2-x--x-x-x-x-x-x--x-x-x-x-x-x-x-|
 E|--x-x-x-x--x-x--0-0-0-0-0-0-2-x--x-x-x-x-x-x--3-3-x-3-3-x-x-|

U U D U U D U U D U U D D D D D U D U D U U D U U D U
[Bridge] 
"Still, I try to be good to you..."
[G] [Bm] [Em]  
 
 e|-3-3--2-2--0-0-|
 B|-0-0--3-3--0-0-|
 G|-0-0--4-4--0-0-| Repeat a few times the strum pattern from each chord (2x).
 D|-0-0--4-4--2-2-|
 A|-x-x--2-2--2-2-|
 E|-3-3--x-x--0-0-|

D U D U D U
[Cborus] 
"Why don't we runaway?..."
[Bm] [A4] [Em] [D] [G]  
 
 e|--2-2-2-x--0-x--0-0-0-0-0-0-0-x--2-2-2-2-2-x--3-3-x-3-3-x-x-|
 B|--3-3-3-x--3-x--0-0-0-0-0-0-0-x--3-3-3-3-3-x--0-0-x-0-0-x-x-|
 G|--4-4-4-x--2-x--0-0-0-0-0-0-0-x--2-2-2-2-2-x--0-0-x-0-0-x-x-|
 D|--4-4-4-x--2-x--2-2-2-2-2-2-2-x--0-0-0-0-0-x--0-0-x-0-0-x-x-|
 A|--2-2-2-x--0-x--2-2-2-2-2-2-2-x--x-x-x-x-x-x--x-x-x-x-x-x-x-|
 E|--x-x-x-x--x-x--0-0-0-0-0-0-2-x--x-x-x-x-x-x--3-3-x-3-3-x-x-|

U U D U U D U U D U U D D D D D U D U D U U D U U D U

Important: The song above is NOT stored on the Chordie server. The original song is hosted at www.azchords.com. Chordie works as a search engine and provides on-the-fly formatting. Chordie does not index songs against artists'/composers' will. To remove this song please click here.

Text color:
Chord color:
Chord grids: 
Font size:    
Page size: 

A4 Bm D Em G
Rate #1 of 5 versions

Jango Player

Login - add to songbook

SHARE PAGE  



You need to log in to post comments