Guitar Tabs, Chords and Lyrics
Login is temporarily disabled for some users. Do not panic. Will be back in an hour or two. DO NOT REREGISTER!!


Sweet Emotion  The Kooks

Chords:
[F#] [F] [A#m] [C#]  
 
 e|-2---1---6---4-|
 B|-2---1---6---6-|
 G|-3---2---6---6-|
 D|-4---3---8---6-|
 A|-4---3---8---4-|
 E|-2---1---6---x-|

They play around with these notes but these are the notes played
 
 e|----------------------|
 B|----------------------|
 G|----------------------|
 D|----------------------|
 A|----------------------|
 E|-2-2--1-1--6-6--9-9-9-|

She's the woman that's on your mind
She's a woman who takes her time
She's the woman that's on your mind
She's a woman who takes her time
[F#]Yes, I [F]feel sweet em[A#m]otion
[C#]Every time you're near [F#]me
[F]Every time you are [A#m]near[C#]
[F#]I said I fe[F]el sweet emo[A#m]tion
[C#]Every time you're near [F#]me
[F]Every time you are [A#m]near[C#]
This chord progression continues throughout the song with the addition of these background chords
 
 e|-14-14-16-16-16-14-|-------13-13-13-|-18-18-18-18-18-18-|-------13-13-13-|
 B|-14-14-14-14-14-14-|-------13-13-13-|-18-18-18-18-18-18-|-------13-13-13-|
 G|-15-15-15-15-15-15-|-------14-14-14-|-18-18-18-18-18-18-|-------14-14-14-|
 D|-16-16-16-16-16-16-|-------15-15-15-|-20-20-20-20-20-20-|-------15-15-15-|
 A|-------------------|----------------|-------------------|----------------|
 E|-------------------|----------------|-------------------|----------------| 


Important: The song above is NOT stored on the Chordie server. The original song is hosted at www.azchords.com. Chordie works as a search engine and provides on-the-fly formatting. Chordie does not index songs against artists'/composers' will. To remove this song please click here.

Text color:
Chord color:
Chord grids: 
Font size:    
Page size: 

A#m C# F F#
Rate #1 of 1 versions

Jango Player

Login - add to songbook

SHARE PAGE  




You need to log in to post comments